Song name
# A B C D E F G H I J K L M N O P Q R S T U V W X Y Z

Jack Johnson - In Between Dreams tab

1. Better Together

----------------------------------------------------------------------------
			     Better Together - Jack Johnson
----------------------------------------------------------------------------

Tuning: Standard Capo 3

Intro (this is without relation to Capo, i.e. open numbering)
e|--------------------------------------------------------------------------
B|--------------------------------------------------------------------------
G|---------12-------10------7-----5-----7------10-------12-------10---------
D|---10/12----12/10----10/7---7/5---5/7---7/10----10/12----12/10----10--3---
A|--------------------------------------------------------------------------
E|--------------------------------------------------------------------------

Intro (in relation to Capo 3)
e|--------------------------------------------------------------------------
B|--------------------------------------------------------------------------
G|-------9-----7-----4-----2-----4-----7-----9-----7------------------------
D|---7/9---9/7---7/4---4/2---2/4---4/7---7/9---9/7---7-0--------------------
A|--------------------------------------------------------------------------
E|--------------------------------------------------------------------------

Chords Used:
     D  Dmaj7  Bm  A  G  D/F#  Em  A*  Ab  G*
e|---2----2-----2--0--3---2----0---5---4---3--------------------------------
B|---3----3-----3--2--3---3----0---5---4---3--------------------------------
G|---2----2-----4--2--0---2----0---6---5---4--------------------------------
D|---0----0-----4--2--0---0----2---7---6---5--------------------------------
A|--------4-----2--0--2---0----2---7---6---5--------------------------------
E|--------------------3---2----0---5---4---3--------------------------------

D               Dmaj7                        Bm                    A
There's no combination of words that I could put on the back of a postcard
G           D/F#              Em            A* 
No song that I could sing but I can try for your heart and
D    Dmaj7              Bm                 A            
Our dreams and they are made out of real things like
G            D/F#             Em           A* 
a shoebox of photographs and sepia-toned lovin
D          Dmaj7                 Bm                       A         
Love is the answer at least for most of the questions in my heart like
G              D/F#                Em               A* 
why are we here and where do we go and how come its so hard? 
D              Dmaj7              Bm             A
Its not always easy and sometimes life can be decieving
G            D/F#                    Em                 A*     Ab
I'll tell you one thing it's always better when we're together 
G*               A*                         Ab G*
mmmmm its always better when we're together
                       A*                        Ab G*
Yeah well look at them stars when we're together 
                  A*                        Ab G*
Well it's always better when we're together
                 A*                        
Yeah its always better when we're together.

: and all of these moments just might find their way into my dreams tonight 
but I know that they'll be gone when the morning light sings or brings new things 
for tomorrow night you'll see that they'll be gone too too many things I have to do.
 but if all of these dreams might find their way into my day to day scene 
I'd be under the impression I was somewhere inbetween with only 2 just me and you 
now so many things we got to do, or places we got to be we'll sit beneath the mango tree now

Yeah its always better when we're always together 
mmmm we're somewhere in between together 
well its always better when we're together 
Yeah it's always better when we're together :

mmmm mmm mmmm

G*             A*                  G*                 A*
I believe in memories they look so, so pretty when I sleep, hey now and
G*           A*                  G*                    A*
and when I wake up you look so pretty sleeping next to me but there is 
G*           A*             G*                 A*
not enough time. there is no, no song I could sing and there is no 
G*              A*                           G*                 A*
combination of words I could say but I will still tell you one thing we're better together

INTRO LICK
Final part of solo (not relative to Capo, i.e. open)
e|-------13-------10------8------10-------13-------15-------13-------10-----
B|-10/13----13/10----10/8---8/10----10/13----13/15----15/13----13/10----10/7/10-|
G|--------------------------------------------------------------------------
D|--------------------------------------------------------------------------
A|--------------------------------------------------------------------------
E|--------------------------------------------------------------------------

Final part of solo relative to capo 3
e|------10------7-----5-----7------10-------12-------10------7--------------
B|-7/10----10/7---7/5---5/7---7/10----10/12----12/10----10/7---7/5/7--------
G|--------------------------------------------------------------------------
D|--------------------------------------------------------------------------
A|--------------------------------------------------------------------------
E|--------------------------------------------------------------------------

| /  slide up
| \  slide down
| h  hammer-on
| p  pull-off
| ~  vibrato
| +  harmonic
| x  Mute note
============================================================================

____________________________________________________________________________


2. Never Know

Chords used:

C#m7 - 4  4  6  4  5  4
     
Fm7 -  9  9  11 9  10 9

B7  -  7  9  7  8  7  7

E   -  x  7  9  9  9  7

A7  -  5  7  5  4  5  5




intro C#m7 Fm7 B7 E x 4


C#m7                                   
I heard this old story before where the 

Fm7
people keep killing for the metaphores

B7                         E
don't leave much up to the imagination so I

C#m7
wanna give this imagery back but I 

Fm7
know it just ain't so easy like that so

B7                               E
I turn the page I read the story again and again and again.

:Bridge:


A7
sure seems the same
Fm7
with a different name
B7
we're breaking and rebuilding and we're growing always gussing never

:Chorus:

C#m7   Fm7
Know - ing

      B7                 E   
we're shocking but we're nothing, we're just

C#m7 Fm7
mo - ments

      B7               E
we're clever but we're clueless we're just

C#m7 Fm7
Hu - man

B7          E
amusing and confusing

C#m7  Fm7
try - ing

B7                    E
but where is this all leading, we'll never know


:solo:


:Verse:
It all happened so much
faster than you could say disaster
wanna take a time lapse and take a look at back.
We found the last one, maybe thats just the answer that we're after
but after all
we're just a bubble in a boiling pot
just one breath in a chain of thought
moments just combusting
feel certain but we'll never never know

:bridge:
sure seems the same
give it a different name
we're begging and we're needing and we're trying and we're breathing never


:Chorus:
Knowing
we're shocking but we're nothing, we're just
moments
we're clever but we're clueless we're just
human
amusing and confusing
helping
building and we're growing, we'll never know

never know
never know
never know

:verse:
knock knock on the door to door
tell you that the metaphore is better than yours
and you can either sink or swim
things are looking pretty grim
if you don't belive in they're spoon feeding
It's got no feeling
so i read it again and again and again

:Bride:
sure seems the same
so many different names
are hearts are strong our heads are weak we'll always be competing never

Knowing
we're shocking but we're nothing, we're just
moments
we're clever but we're clueless we're just
human
amusing and confusing but the 
truth is
All we got is questions we'll never know

never know
never know
never know

____________________________________________________________________________


3. Banana Pancakes


Chords used:

Am 577555
G  355433
D7 x57575
C7 x35353
D  x57775
Bm x24432
Em x79987
C  x35553

Intro and Chorus:

                     Am                     G

e ------------------x-5 e ----------------x-3-|
B ------------------x-5 D ----------------x-3-|
G ------------------x-5 B ----------------x-4-|
D ------------------x-7 G ----------------x-5-|
A ----5-------------x-7 A ----5-----------x-5-|
E 5/7---7-5-3-0-3/5-x-5 E 5/7---7-5-3-0-3-x-3-|


Second time around do this instead:

                    Am                      G

e ----------------x-5-- e ----------------x-3-|
B ----------------x-5-- D ----------------x-3-|
G ----------------x-5-- B ----------------x-4-|
D ----------------x-7-- G ----------------x-5-|
A ----5-7-5-------x-7-- A ----5-----------x-5-|
E 5/7-------7-0-5-x-5-- E 5/7---7-5-3-0-3-x-3-|


e -x-x-5-5-|
B -x-x-7-7-|
G -x-x-5-5-|
D -x-x-7-7-|
A -x-x-5-5-|
e -x-x-x-x-


:Intro:
                                 Am
Well can't you see that it's just raining?

                          G
There ain't no need to go outside.

    D7
But Baby!


:Verse:
    G           D7
You hardly even know this

Am            C7 (when you strum upward, remove pinky and play x35333)
when i try to show you

G                D7
Song is meant to keep you

     Am                C7
from doing what you're supposed to

G            D7
wakin' up to early

Am             C7
maybe we could sleep

G               D7
make you banana pancakes

Am                   C7
pretend like its the weekend

(fill on 'weekend')
e ----------|
D ----------|
B ----------|
G ----5-7-5-|
A 5/7-------|
E ----------|


CHORUS

Am
now

                            G
we could pretend it all the time.

                            Am
Can't you see that its just raining.

                    G
Ain't no need to go outside.

         D7
But just maybe!


:Verse 2:

Hala ka ukulele, mama made a baby.
Really don't mind to practice cause you're my little lady.
Lady lady love me cause I love to lay you lazy.
We could close the curtains pretend like theres no world


:Chorus:

outside.

Then we could pretend it all the time.
cant you see that its just raining,
Ain't no need to go outside.

(just chords at this point, no fill)

Ain't no need Ain't no need.
mmmm  mmmm  mmmmm  mmmmm
Can't you see can't you see?
Rain all day and I don't mind.


:Bridge:

Am                                                             D
But the telephones singin ringin its too early dont pick it up.

We don't need to

       Am                                                             D
we got everything we need right here and everything we need is enough.


just so easy

         Bm
When the whole world fits inside of your arms

      Em                           C
do we really need to pay attention to the alarm?


             G         D
wake up slow,  mmmmm mmmmmm
             G
wake up slow


:verse:

But Baby!

You hardly even know this
when i try to show you
Song is meant to keep you from doing what you're supposed to.

fill on 'supposed'
e ----------|
D ----------|
B ----------|
G ----5-7-5-|
A 5/7-------|
E ----------|


Wakin' up to early
maybe we could sleep
make you banana pancakes
pretend like its the weekend


:Chorus:

now

We could pretend it all the time.
cant you see that its just raining.
Ain't no need to go outside
aint no need aint no need.
Rain all day and I really really really don't mind.
Can't you see can't you see?
you gotta wake up slow.

____________________________________________________________________________


4. Good People


Intro
(some weird scratches and mutes in the beginning)
e----------------------------------------------------|
B----------------------------------9s10--9--7--------|
G--------9b11-r9p7-----7-----------------------9-----|
D-------------------9-----------------------------9--|
A----------------------------------------------------|
E--7--7--------------------10--10--------------------|

e--------------------------------------------------------|
B--------------------------------------------------------|
G--------9b11-r9p7-----7-----------11--11--9--11p9-------|
D-------------------9-------------------------------11/--|
A--------------------------------------------------------|
E--7--7--------------------10--10------------------------|

Verse  B       E      C#m      F#
e--------------0-------4-------2--|
B------4-------0-------5-------2--|
G------4-------1-------6-------3--|
D------4-------2-------6-------4--|
A--2-2---------2---4-4---------4--|
E----------0-0-------------2-2----|
here is the bass line thing during the chorus
e---------------------------------------------|
B---------------------------------------------|
G---------------------------------------------|
D-------1-------4s6-------6s4-----------------|
A--2-2---------------4-4------------4s6--2-2--|
E----------0-0-----------------2-2------------|

Bridge                           (rake)
e-----------------------------------7------------|
B----------------------------------8---10--7~----|
G--------9b11-r9p7-----7----------9-----------7--|
D-------------------9----------------------------|
A------------------------------------------------|
E--7--7-------------------10--10-----------------|

e--------------------------------------------------------------|
B--------------------------------------------------------------|
G--------9b11-r9p7-----7----------11p10--11p10--11p10--10--9~--|
D-------------------9------------------------------------------|
A--------------------------------------------------------------|
E--7--7-------------------10--10-------------------------------|
this is the weird part of the bridge, i know i dont have
it tabbed right, but its close
e--7--------7--7--------8----9--------|
B--7--------7--7--------8----9--------|
G--7--(x8)--7--8--------9----10-------|   and that's all there is
D--9-----------9-(x7)---10---11-(x?)--|   to "Good People"
A--7-----------9--------10---11-------|
E--------------7--------8----9--------|

this is another jj song called "If I Could"
e-------------------------------------|
B-------------------------------------|
G-------------------------------------|
D-------------------------------7-----|
A----4---4s7--7--------4----4s9---9/--|
E--5---5--------0-0--2---2------------|


____________________________________________________________________________


5. No other way

intro
e|-----------------------------------------------------|
B|-----------------------------------------------------|
G|------7------------------------0---------------------|
D|---7/9--9-9-----7\4----4----7/9--9-9------7\4----4---|  x2
A|-------------7/9-----5----------------7/9------5-----|
D|-0-------0--0---------0--0--------0--0----------0----|

e|--------------------------------------------------------------------|
B|--------------------------------------------------------------------|
G|--------------------------------------------------------------------|
D|-------4-------4/2--0---0--------5-------5-------5------------------|
A|---5-------5-----------------5-------5-------5-------5---5----------|
D|-----0-------0--------0---5----5-------5-------5-------5------------|

e|--------------------------------------------------------------------|
B|--------------------------------------------------------------------|
G|--------------------------------------------------------------------|
D|-------2-------2------2---------/--------5-------5-------5----------|
A|---2-------2------2------2---2--/----5-------5-------5--------5---5-|
D|-2---2-------2------2------2----/--5---5-------5-------5--------5---|

e|--------------------------------------------------------------------|
B|--------------------------------------------------------------------|
G|--------------------------------------------------------------------|
D|-------4-------4-------4-----------------5-------5-------5----------|
A|---5-------5-------5------5---5------5-------5-------5-------5---5--|
D|-0---0-------0-------0------0-----5----5-------5-------5-------5----|

e|--------------------------------------------------------------------|
B|--------------------------------------------------------------------|
G|--------------------------------------------------------------------|
D|-------2-------2------2---------/--------5-------5-------5----------|
A|---2-------2------2------2---2--/----5-------5-------5--------5---5-|
D|-2---2-------2------2------2----/--5---5-------5-------5--------5---|

e|--------------------------------------|
B|--------------------------------------|
G|--------------------------------------|
D|-------4-------4------7/5--0--------5-| X3 then
A|---5-------5--------------------5-----|
D|-0---0-------0-----0----------5---5---|

e|--------------------------------------------------------------------|
B|--------------------------------------------------------------------|
G|--------------------------------------------------------------------|
D|-------2-------2------2---------/--------5-------5-------5----------|
A|---2-------2------2------2---2--/----5-------5-------5--------5---5-|
D|-2---2-------2------2------2----/--5---5-------5-------5--------5---|

e|--------------------------------------------------------------------|
B|--------------------------------------------------------------------|
G|--------------------------------------------------------------------|
D|-------4-------4/2--0---0--------5-------5-------5------------------|
A|---5-------5-----------------5-------5-------5-------5---5----------|
D|-0---0-------0--------0---5----5-------5-------5-------5------------|

e|--------------------------------------------------------------------|
B|--------------------------------------------------------------------|
G|--------------------------------------------------------------------|
D|-------2-------2------2---------/--------5-------5-------5----------|
A|---2-------2------2------2---2--/----5-------5-------5--------5---5-|
D|-2---2-------2------2------2----/--5---5-------5-------5--------5---|

e|--------------------------------------------------------------------|
B|--------------------------------------------------------------------|
G|--------------------------------------------------------------------|
D|-------4-------4-------4-----------------5-------5-------5----------|
A|---5-------5-------5------5---5------5-------5-------5-------5---5--|
D|-0---0-------0-------0------0-----5----5-------5-------5-------5----|

e|--------------------------------------------------------------------|
B|--------------------------------------------------------------------|
G|--------------------------------------------------------------------|
D|-------2-------2------2---------/--------5-------5-------5----------|
A|---2-------2------2------2---2--/----5-------5-------5--------5---5-|
D|-2---2-------2------2------2----/--5---5-------5-------5--------5---|

e|--------------------------------------|
B|--------------------------------------|
G|--------------------------------------|
D|-------4-------4------7/5--0--------5-| X3 then you go
A|---5-------5--------------------5-----|
D|-0---0-------0-----0----------5---5---|

e|--------------------------------------------------------------------|
B|--------------------------------------------------------------------|
G|--------------------------------------------------------------------|
D|-------2-------2------2---------/--------5-------5-------5----------|
A|---2-------2------2------2---2--/----5-------5-------5--------5---5-|
D|-2---2-------2------2------2----/--5---5-------5-------5--------5---|

  outro
e|-----------------------------------------------------|
B|-----------------------------------------------------|
G|------7------------------------0---------------------|
D|---7/9--9-9-----7\4----4----7/9--9-9------7\4----4---|  x2
A|-------------7/9-----5----------------7/9------5-----|
D|-0-------0--0---------0--0--------0--0----------0--0-|


____________________________________________________________________________


6. Sitting Waiting Wishing

Standard Tuning (EADGBe)
No Capo

Intro/Verse

e---5---5---3---3---1---1---3---3-|
B---5---5---3---3---1---1---5---5-|
G---5---5---4---4---2---2---5---3-|
D---7---5---5---3---3---1---5---5-|
A---7---7---5---5---3---3---3---3-|
E---5---5---3---3---1---1---------|
   Am  Am7  G  G7   F  F7   C  C7

Chorus

e---0---5---5---5---5-|
B---0---5---5---5---5-|
G---1---5---5---5---5-|
D---2---7---5---7---5-|
A---2---7---7---7---7-|
E---0---5---5---5---5-|
    E  Am  Am7 Am  Am7

Bridge

E---3---0---1---3-|
B---5---0---1---3-|
G---5---1---2---4-|
D---5---2---3---5-|
A---3---2---3---5-|
E-------0---1---3-|
    C   E   F   G

Lyrics

Well I was sitting, waiting, wishing
You believed in superstitions
Then maybe you'd see the signs

The Lord knows that this world is cruel
I ain't the Lord, I'm just a fool
and in love with somebody don't make them love you

Must I always be waiting, waiting on you
Must I always be playing, playing your fool

I sang your songs, I danced your dance
I gave your friends all a chance
Putting up with them wasn't worth ever having you

Maybe you've been through this before
But it's my first time so please ignore
These next few lines because they're directed at you

I can't always be waiting, waiting on you
I can't always be playing, playing your fool

I keep playing your part
But it's not my scene
Want this part to twist
I've had enough mystery
Keep building it up
Then shooting me down
But I'm already down

Just wait a minute
Just sitting, waiting
Just wait a minute
Just sitting, waiting

Well if I was in your position
I'd put down all my amuntintion
I'd wonder why it had taken me so long

But the lord knows that I'm not you
and if I was I wouldn't be so cruel
cause waitin' on love ain't so easy to do

Must I always be waiting, waiting on you
Must I always be playing, playing your fool

____________________________________________________________________________


7. Staple it together

intro

--------------------------------------------|
xxx---5-x-5-x-7-7-7-555-x-5--55-7-7-7-555---|
xxx---5-x-5-x-7-7-7-555-x-5--55-7-7-7-555---|
--------------------------------------------|
--------------------------------------------|
--------------------------------------------|

verse
(i think this is played on bass but here it is anyway)


---------------------------------------------|
---------------------------------------------|
---------------------------------------------|
---------------------------------------------|
--0----0----3----5----33333--3---5-----------|
---------------------------------------------|

then the intro comes in again on guitar

chorus

--------------------------------------------------------------|
-5-xx-5---strum>>-7-7-7-7-------------------------------------|
-5-xx-5-----------7-7-7-7---4-xx-4---strum>>>-5-5-5-5---------|   x2
-5-xx-5-----------7-7-7-7---5-xx-5------------5-5-5-5---------|
-3-xx-3-----------5-5-5-5---5-xx-5------------3-3-3-3---------|
----------------------------5-xx-3----------------------------|

1st interlude
(ime not 100%sure about this section but i think it sounds ok-ish)
-----------------------------------------------------------|
--5-xx-5-------7-5-77B-5---------5-xx-5--------------------|
--5-xx-5-----------------7-5-----5-xx-5--------------5-----|
--5-xx-5-------------------------5-xx-5----------5H7---7---|
--3-xx-3-------------------------3-xx-3------5H7-----------|
-----------------------------------------------------------|

--------------------------------------9-7-5-4--------------|
--5-xx-5----7-7-7-555------5-xx-5-----9-7-5-4--------------|
--5-xx-5----7-7-7-555------5-xx-5--------------------------|
--5-xx-5-------------------5-xx-5--------------------------|
--3-xx-3-------------------3-xx-3--------------------------|
-----------------------------------------------------------|

there are a few more little fill in which jak does-
after all of them the interlude ends on
                                            e-string>---7---|
                                            B-string>---7---|

verse- play the intro

chorus- play chorus!
(chorus is a little longer the second time but still the same notes just played once or twice more.)

2nd interlude

----------------------------------------------|
----------------------------------------------|
---------5-7-----------5-7--7s9-7-5-----------|
--7-xx-7---------77777--------------7---------|
----------------------------------------------|
----------------------------------------------|


----------------------------------------------|
---------------------------7B-7B-7B-5---------|
---------5-7------------5--7B-7B-7B-5---------|
--7-xx-7----------77777-----------------------|
----------------------------------------------|
----------------------------------------------|

--------------------------------------------------------------------5-----|
--------------------------8-------------------------------------7---5-----|
----------9-7--------7-5-7-7-5---------9 7-7s9-7 5--------7-5---7---6-----|
---7--777-------55555----------5s7-777------------7-55555-----------7-----|
--------------------------------------------------------------------7-----|
--------------------------------------------------------------------5-----|
                                                                 end on



____________________________________________________________________________


8. Situations

Intro: Fade in with: B - abm - E - Fis - E

B 
Situation number one 
abm
It's the one that's just begun 
E                      Fis       E
But evidently it's too late 

B
Situation number two 
abm
It's the only chance for you 
E                             Fis     E
It's controlled by denizens of hate 

B
Situation number three 
abm
It's the one that no one sees 
E                              Fis     E
It's all too often dismissed as fate 

B
Situation number four 
abm
It's the one that left you wanting more 
E                          Fis     E
It tantalized you with it's bait

Outro: B - B - A - Fis - B - B - A - Fis


____________________________________________________________________________


9. Crying Shame

Intro:

F#m      G#m

                  F#m
Its such a tired game
             G#m
Will it ever stop
                  F#m
How will this all play out
                  G#m  
Upside out of my mouth

                  G#m
By now we should know
                                         G#m
How to communicate instead of coming to blows
            C#m  
We're on a roll
B                              C#m
And there ain't no stopping us now
B                       C#m
We're burning under control
B                  C#m
Isn't it strange how
B                                G#m                               
We're all burning under the same sun
                                 G#m
By now we say its a war for peace
                    G#m
Its the same old game
                          C#m
But do we really want to play?
     B                           C#m
We could close our eyes its still there
     B                      C#m
We could say its us against them
     B                 C#m
We can try but nobody wins
     B                       F#m
Gravity has got a hold on us all
                 G#m
We try to put it out
                   F#m
But its a growing flame
               G#m
Using fear as fuel
                  F#m
Burning down our name
                      G#m
And it wont take too long
                       F#m
Cause words are burning same
                       G#m
And who we gunna blame now?

                    C#m     B       A    G#m
And oh, Its such a crying crying crying shame
            C#m     B      A     G#m
Its such a crying crying crying shame
            C#m     B      A      G#m      F#m
Its such a crying crying crying shame, shame, shame





SOLO:

G#m 


G#m
By now
                 G#m
It's starting to show
                                                C#m
A number of people are numbers who aint coming home
       B                      C#m
I can close my eyes its still there
  B                C#m
Close my mind be alone
  B                     C#m
Close my heart and not care
      B                          G#m
But gravity has got a hold on us all
                            G#m                            
It's a terrific price to pay
                              C#m
But in the true sense of the word
        B                    C#m 
Are we using what we've learned?
        B                 C#m
In the true sense of the word
       B                C#m
Are we losing what we were?
                  F#m
Its such a tired game
              G#m
Will it ever stop?
                 F#m
Is not for me to say
                  G#m
And is it in our blood?
                   F#m 
Or is it just our fate?
                         G#m
And how will this all play out
                F#m
Upside out of my mouth
                   G#m
And who we gonna blame?

On and on
            C#m     B      A     G#m
Its such a crying crying crying shame
             C#m    B      A     G#m
Its such a crying crying crying shame
             C#m    B      A     G#m      F#m      G#m
Its such a crying crying crying shame shame shame


____________________________________________________________________________


10. If I Could

Order For Song:
  Intro
  Verse 1
  Transition To Chorus
  Chorus x3
  Verse 2
  Transition To Chorus
  Chorus x4

The Order for the Intro and the Verse is A,B,A,B,A,B,A,A,A,B

        e|-------------------------------------|
        B|-------------------------------------|         
        G|-------------------------------------|
Riff B  D|---------------------------7---------|
        A|---4---4/7-7-------4---4/9---9-------|
        E|-5---5-------0-0-2---2---------9-----|

        e|-------------------------------------|
        B|-------------------------------------|
        G|-------------------------------------|
Riff A  D|-------------------------------------|
        A|---4---4/7-7-------4---4/9-9---------|
        E|-5---5-------0-0-2---2-------7\5-----|



The Transition into the chorus is almost the same as Riff B
with a different ending.




           e|---------------------------------------------|
Transition B|---------------------------------------------|
    to     G|---------------------------------------------|
  Chorus   D|---------------------------7------------6----|
           A|---4---4/7-7-------4---4/9---9-9-7-7-7----7--|
           E|-5---5-------0-0-2---2-----------------------|
 




        e|-----------------------------------|
        B|-----------------------------------|
Chorus  G|---4/6-----------------------------|X 3
        D|-------7---7---7---4---4---6---6---| 
        A|-0-------5---5---2---2---7---7-----|
        E|-----------------------------------|

        

The Second Verse uses the two riffs differently than the first verse.

Verse 2: Play Riff A,B,A,B,A,B,A,B,A,B After This play the transition once more 
then go to the chorus and play it 4 times. on the 4th time end by 
playing the A string.


____________________________________________________________________________


11. Breakdown

Chords:
 C:(x32010)
 Em:(022000)
 Am:(002210)
 G:(320033)

Strumming D=Down, U=Up
D,D,U,D,U,D,U


C                Em
I hope this old train breaks down
Am                  G
Then I could take a walk around
C                    Em
And, see what there is to see
Am                  G
And time is just a melody
C                    
All the people in the street
Em
Walk as fast as their feet can take them
Am                    G
I just roam through town
C                            
And though my windows got a view
Em                  
The frame im looking through
Am                              G
Seems to have no concern for me now

So for now

[Chorus]
C      Em
I, need this here
Am           G
Old train to breakdown
C    Em
Oh, please just
Am             G
Let me please breakdown


C            Em
This engine screams out loud
Am              G
Sayin the beat gonna crawl westbound
C               Em
So I dont even make a sound
Am                               G
Cause its gunna sting me when I leave this town
C
All the people in the street
Em
That i'll never get to meet
   Am               G
If these dont bend somehow
C
And I got no time
Em
That I got to get to
Am                   G
Where I dont need to be

So I

C  Em
I, need this here
Am           G
Old train to breakdown
C    Em
Oh, please just
Am             G
Let me please breakdown
C   Em
I, need this here
Am            G
Old train to breakdown
C    Em
Oh, please just
Am              G
Let me please breakdown
C                 En
I wanna break on down
Am              G
But I cant stop now

C
But you cant stop nothing
Em
If you got no control
Am
Of the thoughts in your mind
G
That you kept in, you know
C
You dont know nothing
Em
But you dont need to know
Am
The wisdoms in the trees
G
Not the glass windows
C
You cant stop wishing
Em
If you dont let go
Am
But things that you find
G
And you lose, and you know
C
You keep on rolling
Em
Put the moment on hold
Am
The frames too bright
G
So put the blinds down low

C   Em
I, need this here
Am           G
Old train to breakdown
C    Em
Oh, please just
Am             G
Let me please breakdown
C   Em
I, need this here
Am             G
Old train to breakdown
C    Em
Oh, please just
Am              G
Let me please breakdown
C                 Em
I wanna break on down
Am             G
But I cant stop now


___________________________________________________________________________


12. Belle

Intro

G7M  G7M  G7M   G* 

Gm7  Gm7  Gm7   G7* 

G7M  G7M  G7M   G*

Bm7  Bm7  Cm7   Cm7 

Am7  Am7  Am7   Am*

Am7  Am7  G#7M  G#*

G7M  G7M  Cm7   Cm7*

Am7  A7m  G#7M  G#*

(2x)


Verse

   G7M G7M G7M 
Oi lienda

G*         Gm7  Gm7  Gm7 G7*
Bella che fa?

G7M G7M G7M  G*         Bm7 Bm7 Cm7 Cm7
Bonita,      bonita que tal?

Am7 Am7 Am7
But belle

Am* Am7 Am7     G#7M G#*    G7M G7M Cm7
Je ne comprends pas   francais

Cm7*               Am7 A7m     G#7M G#*
So you'll have to speak to me

           G7M G7M G7M*
Some other way


____________________________________________________________________________


13. Do You Remember

Chords

D     557775
A     577655
G     355433
Bm    224432
F#m   244222
D*    000232
A*    002220
F#Gbm 9/9/11/11/10/9

Verse

Chords strummed between picking: D,A,G,D

e --5s7-------5-------------5---5---------3-3---5s7-------5----|
a ------5-7-5-5-------------7-7-7-7s9-7-5---5-5-----5-7-5-5----|
d ------------7-7s9---9s7-7-7---5-----------5-------------7----|
g ------------7-----7-------6---6-----------4-------------7----|
b ------------7-------------5---5-----------3-------------7----|
e ------------5-------------5---5-----------3-------------5----|

Do you remember when we first met
I sure do
It was some time
In early September
Though you were lazy about it
You made me wait around
I was so crazy about you
I didn't mind
So I was late for class
I looked my bike to yours
It wasn't hard to find
Your painted flowers oh
Guess that I was afraid
That if you rode away
You might not roll back
My direction real soon

Chorus

A
Well I was crazy about you then
And now the craziest thing of all
      Bm               D*
Over 10 years have gone by

              F#Gbm
And your still mine
Locked in time

Lets rewind
A,G,Fm,A*

Verse

Do you remember
When we first moved in together
The piano took up the living room
You'd play me boogie woogie
I played you love songs
You'd say we're playing house
Now you still say we are
We build our get away
Up in a tree we found
We felt so far away
Though we were still in town
I remember watching
That old tree burn down
I took a picture that
I don't like to look at

Chorus

A
Well all these times
They come and go
Along don't seem so long
      Bm                D*
Over 10 years have gone by
        F#Gbm
We cant rewind
We're looked in time
But your still mine
          A,G,Fm,A* (pick A string on each chord)

(start of the verse tab)

Do you remember


___________________________________________________________________________


14. Constellations

Capo 1st Fret

Intro: G, C


Verse:
G
The light was leaving in the west it was blue
C
The children's laughter sang
G
And skipping just like the stones they threw
C
Their voices echoed across the way
D7
It's getting late....

Chorus:
G          F            C
And it was just another night
       D7           G
With a sunset and a moonrise
F           C                 D7              G
Not too far behind to give us just enough light
            F              C
To lay down underneath the stars
               D7                G
We listened to papa's translations
       F                  C
Of the stories across the skies
            D7               G
We drew our own constellations



Hope You Enjoy, Jack is de man


Tap to rate this tab
# A B C D E F G H I J K L M N O P Q R S T U V W X Y Z