Song name
# A B C D E F G H I J K L M N O P Q R S T U V W X Y Z

Jack Wagner - All I Need tab

hey everyone
this is my first tab
this sounds right to me
struming is pretty easy just listen 2 the song
he palm mutes between change of chords also.
feel free to email me Jackson_Ralph@hotmail.com
cheerz guys

Shane Piasecki-All i need

Capo 1st fret

Intro and verse

e|-3---3---3-------|
B|-3---3---3-------|
G|-0---2---0-------|
D|-0---0---2-------|
A|-2---2---2-------|
E|-3---0---0-------|
"i may not have all that much..."

chorus

e|---3----3----3----3----3----3----3----3----------------------------------|
B|---3----3----3----3----3----3----3----3----------------------------------|
G|---0----0----2----2----0----0----0----0----------------------------------|
D|---0----0----0----0----2----2----2----2----------------------------------|
A|---2----2----2----2----2----2----3----3----------------------------------|
E|---3----3----0----0----0----0----0----0----------------------------------|
"you could bring me the

I may not have all that much but I got all it takes to get by
And I may all the answers but you no that life
And I got more than I ask for and u no that it’s true
And if I could loose all the things I worked for
I could never loose you

You could bring me the world
You could bring me the sea
But nothing could ever compare to
The gift you’ve giving me
you could by me an ocean
you could bring me the moon
But it wouldn’t mean a thing
If I couldn’t have you   lord

And I may not look like Mel Gibson
But it feels good to me
And I may not dance like Michael Jackson
Hehehe
But I fell like Elvis Presley when I
I play my guitar 4 you
And you stand there with your long dark hair and you listen 2 me sing how to do

You could bring me the world
You could bring me the sea
But nothing could ever compare to
The gift you’ve giving me
you could by me an ocean
you could bring me the moon
But it wouldn’t mean a thing
If I couldn’t have you lord
If I didn’t have you lord

You could bring me the world
You could bring me the sea
But nothing could ever compare to
The gift you’ve giving me
you could by me an ocean
you could bring me the moon
But it wouldn’t mean a thing
If I couldn’t have you lord

| /  slide up
| \  slide down
| h  hammer-on
| p  pull-off
| ~  vibrato
| +  harmonic
| x  Mute note
===============================================================================
Tap to rate this tab
# A B C D E F G H I J K L M N O P Q R S T U V W X Y Z