Song name
# A B C D E F G H I J K L M N O P Q R S T U V W X Y Z

Jack White - Sixteen Saltines tab

Main Riff
e|-----------------|
B|-----------------|
G|-----------------|
D|-22-55---77-99---|
A|-22-55---77-99---|
E|-00-33---55-77---|

Chorus/second riff
e|---------------------|
B|---------------------|
G|-55555555-77777777---|
D|-55555555-77777777---|
A|-33333333-55555555---|
E|---------------------|

Altered main riff

e|---------------------|
B|---------------------|
G|---------------------|
D|---------------------|
A|-----5---------5-7---|
E|-0-3---5---5-3-------|

Solo riff

e|-------------------|
B|-------------------|
G|-------------------|
D|-2-2-2-2-2-2-2-2---|
A|-2-2-2-2-2-2-2-2---|
E|-0-0-0-0-0 0-0-0---|

e|-------------------------------------------|
B|-------------------------------------------|
G|-------------------------------------------|
D|-2-2-2--5-5-5--7-7--9-9-9--12-12-12--14 ---|
A|-------------------------------------------|
E|-------------------------------------------|(repeat this part)

End riff
e|---------|
B|---------|
G|---------|
D|-22-55---|
A|-22-55---|
E|-00-33---|

Structure:

Main riff (x5)
Chorus riff
Main riff (x3)
Chorus riff
Altered main riff (x5)
Chorus riff
Main riff (x5)
Chorus riff
Main riff (x3)
Chorus riff
Altered main riff (x5)
Chorus riff
Solo riff + extended free soloing
End riff
Tap to rate this tab
# A B C D E F G H I J K L M N O P Q R S T U V W X Y Z