Song name
# A B C D E F G H I J K L M N O P Q R S T U V W X Y Z

Jack White - High Ball Stepper tab

Found part of this tab on this video:
https://www.youtube.com/watch?v=TkWfv96oOO4

This isn't the entire song but is the majority. Leave any revisions in comments and I'll 
be sure to add them. BTW I'm soloing in the key of Dm of F (remember the drop D though).

Tabs Drop D
Riff 1
E-----------------|
B-----------------|
G-----------------|
D-----------------|
A-5-4-3-----------|
D---------5-3-0---|

Riff 2
E---------------------------------------|
B---------------------------------------|
G---------------------------------------|
D---------------------------------------|
A-5-3-5----5-3-5------------------------|
D---------------------5-3-5-----5---3---|

Small riff added at the end of Riff 2 at 1:25 (add vibrato on the 10)
E-----------------|
B-----------------|
G----12--10-------|
D-----------------|
A-----------------|
D-----------------|

Riff 3
E---------------------------------------­-------------------|
B---------------------------------------­-------------------|
G---------------------------------------­-------------------|
D---------------------------------------­-------------------|
A-=5-3-5-----5-3-5---------------5-5-5-5-5­-5-5-5-5---------|
D----------0----------0-3-5------5-5-5-5­-5-5-5-5-5---------|

Riff before solo at 1:46 (bend up and come back down on second 9 and vibrato on the last note)

E---------------------|
B-9-9b--7----7--------|
G--------7-7----7-7-7-|
D---------------------|
A---------------------|
D---------------------|
Tap to rate this tab
# A B C D E F G H I J K L M N O P Q R S T U V W X Y Z