Song name
# A B C D E F G H I J K L M N O P Q R S T U V W X Y Z

Jacko Hooper - Common Sense tab

Jacko Hooper  Common Sense
Tabbed by Jasper121

Standard Tuning, Capo 3th

Intro
    E
e|-------------------------------------------------|
B|------8---8-----8----8-----8----8----8---8-------|
G|-------9----------9---------9---------9----------|
D|----9---9-----9----9-----9----9----9---9---------|
A|--7---------7----------7---------7---------------|
E|-------------------------------------------------|

e|-------------------------------------------------|
B|------8---8-----8----8-----8----8----8---8-------|
G|-------9----------9---------9---------9----------| these 2 parts
D|----9---9-----9----9-----9----9----9---9---------| x2
A|-------------------------------------------------|
E|--8---------8----------8---------8---------------|

     G                          C
e|-----------------------------------------------------|
B|------3-----3-----3-----3------5-----5----5----5/4---|
G|--------4-----------4------------0----------0--------|
D|----5-----5-----5-----5------2-----2----2-----2------|
A|---------------------------3----------3--------------|
E|--3----------3---------------------------------------|

e|-----------------------------------------------------|
B|------3----1---1-----1--1-----1---1-----1---1--------|
G|-------0---------2--------2---------2---------2------|
D|----2----2---0-----0---0----0---0-----0---0-----0----|
A|--3--------0---------0--------3---------3------------|
E|-----------------------------------------------------|

e|------------------------------|
B|-0---0-----0---0-----0~-------|
G|-------0---------0------------|
D|---0-----0---0-----0----------|
A|------------------------------|
E|-3---------3---------3~-------|

Verse
e|-------------------------------------------------|
B|------8---8-----8----8-----8----8----8---8-------|
G|-------9----------9---------9---------9----------|
D|----9---9-----9----9-----9----9----9---9---------|
A|--7---------7------------------------------------|
E|-----------------------8---------8---------------|
Don't worry about the boy
e|-------------------------------------------------|
B|------3-----3-----3-----3------5-----5-----------|
G|--------4-----------4------------0---------------| these 2 parts
D|----5-----5-----5-----5------2-----2-------------| x 4
A|---------------------------3---------------------|
E|--3----------3-----------------------------------|
He'll grow in his own time

I know he may seem lost But he will be ok
He just doesn't want to throw all of his hard work away
It takes a second to know But it takes longer to learn
That you don't always have to do it alone

Chorus
   G                    Bm              C               Em
e|-----------------------------------------------------|
B|-----3-----------3-----------1-------------0---------|
G|-------4---4-------4-----------2--2------------------|
D|---5-----5-----4-----4-----0-----0----------2---2----| x8
A|-------------2-----------3-------------2------2------|
E|-3-----------------------------------0---------------|

You're over reacting again
And it doesn't have to take long to regain
Now all of these fallen, searching pieces,
That make up what he comprehends
And it'll all be over before you can say
Which way does he turn, Will he ever be ok
He doesn't need a lecture, He just needs common sense


Verse II (same)

So see what it is you want to see
And it'll be just more than me
Because you require
A straight faced liar
And that is just not me
And now you know me all too well
For this to ever sell
So don't expect a miracle
Expect it satirical

Chorus (same)

You're over reacting again
And it doesn't have to take long to regain
Now all of these fallen, searching pieces,
That make up what he comprehends
And it'll all be over before you can say
Which way does he turn
Will he ever be ok


check him out on soundcloud: http://soundcloud.com/jacko-hooper/common-sense-1
or youtube: http://www.youtube.com/watch?v=KgoaG0diStI
Tap to rate this tab
# A B C D E F G H I J K L M N O P Q R S T U V W X Y Z