Song name
# A B C D E F G H I J K L M N O P Q R S T U V W X Y Z

Jacks Mannequin - Crashin tab

tried to see if i could play it by ear figured it out and checked the other tabs and 
my version better so here it is.


e|-----------------------------------------------------------------|
B|-----------------------------------------------------------------|
G|---9-8-------------------------9-8-------------------------------|
D|-------9-11-13-9-11-13-9-8~--------9-11-13-9-11~-----------------|
A|-----------------------------------------------------------------|
E|-----------------------------------------------------------------|

e|-----------------------------------------------------------------|
B|-----------------------------------------------------------------|
G|---9-8-------------------------9-8-------------------------------|
D|-------9-11-13-9-11-13-9-8~--------13-9-11-13-8~-----------------|
A|-----------------------------------------------------------------|
E|-----------------------------------------------------------------|
Tap to rate this tab
 
# A B C D E F G H I J K L M N O P Q R S T U V W X Y Z