Song name
# A B C D E F G H I J K L M N O P Q R S T U V W X Y Z

Jackson C Frank - Just Like Anything tab

Just Like Anything (Jackson C. Frank)
Standard, capo # 6

Main riff / intro
e-------------------------------|-------------------------------|
B----0h1-0h1-----------0h1--0---|----0h1-0h1-----------0h1--0---|
G---------------0-------------0-|---------------0-------------0-|
D-----2-------2---------0-------|-----2-------2---------0-------|
A-0-------0---------------------|-0-------0---------------------|
E-------------------3-------3---|-------------------3-------3---|

Verse:-

e-----3---------------------|-----1---1-------------|
B-----------1--------010----|----------------010----|
G-------------------------0-|---------------------0-|
D-----0-------0-------0-----|-----------------0-----|
A-3-------3-----------------|-3-------3-------------|
E-----------------3-------3-|-------------3-------3-|

e-----------------------|-----------------------|
B----010---------010----|-----------------------|
G---------0-----------0-|-----------------------|
D-----0-----------0-----|-----0-------0-------0-|
A-----------------------|-----------------------|
E-3-------3---3-------3-|-3-------3-------3-----|

e---------------|-----------------------------|
B---------------|----0h1-0h1---------010--0---|
G---------------|---------------0-----------0-|
D-----0-------0-|-----2-------2-------0-------|
A---------------|-0-------0-------------------|
E-3-------3-----|-----------------3-------3---|

Questions? MSN: koso@quetevalga.com

Visit: http://jacksoncfrank.wordpress.com/
Tap to rate this tab
# A B C D E F G H I J K L M N O P Q R S T U V W X Y Z