Song name
# A B C D E F G H I J K L M N O P Q R S T U V W X Y Z

Jackson C Frank - October tab

October 
Jackson C. Frank

Capo 4


Intro verses & Outro

e-----0-0-0-0-0-0---0-0-0-0-0-0---0-0-0-0-0------0-0-0-0-0-0--|
b-----0-0-0-0-0-0---0-0-0-0-0-0---0-0-0-0-0------0-0-0-0-0-0--|
g-----0-0-0-0-0-0---0-0-0-0-0-0---0-0-0-0-0------0-0-0-0-0-0--|
d--5--------------4-------------2------------0----------------|
a----------------------------------------------2--------------|
e-------------------------------------------------------------|

e----0-0-0-0-0-0---0-0-0-0-0--------0-0-0-0-0-0---0-0-0-0-0-0--||
b----0-0-0-0-0-0---0-0-0-0-0--------0-0-0-0-0-0---0-0-0-0-0-0--||
g----0-0-0-0-0-0---0-0-0-0-0--------0-0-0-0-0-0---0-0-0-0-0-0--||
d-------------------------------2------------------------------||
a--3-------------3-----------3---------------------------------||
e---------------------------------0-------------0--------------||



Chorus

e-----2-2-2-2-2-2----2-2-2-2-2-2----0-0-0-0-0-0----0-0-0-0-0-0--||
b-----3-3-3-3-3-3----3-3-3-3-3-3----0-0-0-0-0-0----0-0-0-0-0-0--||
g-----2-2-2-2-2-2----2-2-2-2-2-2----0-0-0-0-0-0----0-0-0-0-0-0--||
d---------------------------------------------------------------||
a--0--------------0---------------------------------------------||
e---------------------------------0-------------0---------------||

Beautiful song... hope you know it.
Tap to rate this tab
# A B C D E F G H I J K L M N O P Q R S T U V W X Y Z