Guitaretab - guitar tabs
Song name
# A B C D E F G H I J K L M N O P Q R S T U V W X Y Z

Jackson Michael - Beat It tab

#----------------------------------PLEASE NOTE--------------------------------#
#This file is the author's own work and represents their interpretation of the#
#song. You may only use this file for private study, scholarship, or research.#
#-----------------------------------------------------------------------------#
#-- File created with Instab - http://www.pconline.com/~smcarey/instab.html --#
#-----------------------------------------------------------------------------#

Author/Artist: Michael Jackson
Title: Beat It
Transcribed by: Saverain
/ slide up
\ slide down
b bend
r release bend
p.m. palm mute
h hammer on
p pull off
v vibrato
harmo harmonics

Tuning: 1/2 Step Down (Eb Ab Db Gb Bb eb)

--------------------------|--------------------------------------------------|
--------------------------|--------------------------------------------------|
--------------------------|--------------------------------------------------|
--------------------------|--------5-2-v-2/4-2--------------5-2-v-2/4-2------|
--------------------------|------2-------------5--5-------2-------------5----|
--------------------------|-0--3---------------------0--3--------------------|
  Intro G1(4x)G2(2x) Chorus                                              m
----|-------------------------------------------------------------------------|
----|-------------------------------------------------------------------------|
----|-x-x-x-x-x-x-x-12-x-x-12-9--x-x-11-x-x-11-7-\---x-x-x-x-12-x-x-12-9--x-x-|
----|-x-x-x-x-x-x-x-12-x-x-12-9--x-x-12-x-x-12-7-\-/-x-x-x-x-12-x-x-12-9--x-x-|
----|-x-x-x-x-x-x-x----x-x-------x-x----x-x----------x-x-x-x----x-x-------x-x-|
----|-------------------------------------------------------------------------|
  Intro G2
----------------|-------------------------------------------------------------|
----------------|-------------------------------------------------------------|
-11-x-x-11-7-\--|-------------------------------------------------------------|
-12-x-x-12-7-\--|-------------------------------------------------------------|
----x-x---------|-------------------------------------------------------------|
----------------|-------------------------------------------------------------|

-|-----------------------------------------------------------------------|---|
-|-----------------------------------------------------------------------|---|
-|-----------------------------------------------------------------------|---|
-|-9-9--9--7-7--7----9-9--9--7-7--7----5-5--5--7-7--7----9-9--9--7-7--7--|2x-|
-|-7-7--7--5-5--5----7-7--7--5-5--5----3-3--3--5-5--5----7-7--7--5-5--5--|---|
-|-----------------------------------------------------------------------|---|
  Verse G1
-|---------------------------------|--|--------------------------|------------|
-|---------------------------------|--|--------------------------|------------|
-|---------------------------------|--|--------------------------|------------|
-|-9---9---9---7---7---7-9-7---7---|3x|-9---9---9---7---7---7----|------------|
-|---7---7---7---5---5-------5-----|--|---7---7---7---5---5------|------------|
-|---------------------------------|--|--------------------------|------------|
  Verse Pt2 G2 P.M. All

-------|----------------------|-----------------------------------------------|
-------|----------------------|-----------------------------------------------|
-------|----------------------|-----------------------------------------------|
-------|----------------------|-----------------------------------------------|
-------|----------------------|-----------------------------------------------|
-------|-0-0--0----0-0--0-----|-----------------------------------------------|
  G1 Interlude

-------|--------------------------------------|-------------------------------|
-------|--------------------------------------|-------------------------------|
-------|-x-x-12-x-x-12-9v--x-x-12-x-x-12-9v-\-|-------------------------------|
-------|-x-x-12-x-x-12-9v--x-x-12-x-x-12-9v-\-|-------------------------------|
-------|-x-x----x-x--------x-x----x-x---------|-------------------------------|
-------|--------------------------------------|-------------------------------|
  G2 Interlude
[ Tab from: http://www.guitaretab.com/j/jackson-michael/8967.html ]
---|---------------16-b17r16-b17r16-b17-16-----------------13-11-11h13-11-----|
---|---------------------------------------5-v-v--------------------------14--|
---|--------------------------------------------------------------------------|
---|------8vv/11vv------------------------------------------------------------|
---|-----------------------------------------------18/20----------------------|
---|-1-/----------------------------------------------------------------------|
  G3 Solo G1 Verse Riff                    Harmo

-----11h13-11-------11h13-----------------------------------------------------|
-13-----------14-13-------14-11--12brp13p11--14brp13p11-12-11-11--12--11v/----|
------------------------------------------------------------------------------|
------------------------------------------------------------------------------|
------------------------------------------------------------------------------|
------------------------------------------------------------------------------|


--------------18-14-11-13-11-13-11----------11h13----------13p11----11--------|
-11-13-14--16----------------------11-14-11-------11-14-11-------11----11-----|
------------------------------------------------------------------------------|
------------------------------------------------------------------------------|
------------------------------------------------------------------------------|
------------------------------------------------------------------------------|


------------------------------------------------------------------------------|
---9b10r9-9b10-7-10b11r10--10-11-13/--16p14-14-16p14-10b-11-r10-9-7-----------|
------------------------------------------------------------------------------|
--------------------------------------------------------------------4-b-5-r-4-|
------------------------------------------------------------------------------|
------------------------------------------------------------------------------|


-----21b22r21---------------------------------------------------------7/21br--|
--------------------------------2/4-4-2---2-2/4-2---2b/4-2---2b/4-2-----------|
----------------------------------------3---------3--------3--------3---------|
-4-/--------------------------------------------------------------------------|
--------------16-18-16/18-16v\------------------------------------------------|
------------------------------------------------------------------------------|


-----11-8/11-11-9-15b16v-11---------------------------------14----------------|
----------------------------10-9b10vv-9p7-9-v-v-v\-16p14-14----16p14-14-16-14-|
-6/8--------------------------------------------------------------------------|
------------------------------------------------------------------------------|
------------------------------------------------------------------------------|
------------------------------------------------------------------------------|


-14-------------------------------14--------9h11p9h11p9b10----------10b11v-v--|
----16-16p14----16-16p14----14-14----16p14\-----------------------0-----------|
-------------16----------16---------------------------------------0-----------|
------------------------------------------------------------------------------|
------------------------------------------------------------14/18-------------|
------------------------------------------------------------------------------|


-v-11-11-11r10-12-12-12-12-12-12-12-15-15-15-15-15-15-15-15-17-17-17-17-17-17-|
------------------------------------------------------------------------------|
------------------------------------------------------------------------------|
------------------------------------------------------------------------------|
------------------------------------------------------------------------------|
------------------------------------------------------------------------------|


-17-17-19-19-19-19-19-19-19-19-20b21-21-21-21-21-21-21-21-21b22-22-22-22-22---|
------------------------------------------------------------------------------|
------------------------------------------------------------------------------|
------------------------------------------------------------------------------|
------------------------------------------------------------------------------|
------------------------------------------------------------------------------|


-22-22r20--21-21-21-----------|-----------------------------------------------|
------------------------------|-----------------------------------------------|
------------------------------|-----------------------------------------------|
------------------------------|-----------------------------------------------|
--------------------17-\------|-----------------------------------------------|
------------------------------|-----------------------------------------------|
Related for Beat It tab
Beat It chords by Jackson Michael