Guitaretab - guitar tabs
Song name
# A B C D E F G H I J K L M N O P Q R S T U V W X Y Z

Jackson United - All The Way tab

----------------------------------------------------------------------------
			ALL THE WAY - JACKSON UNITED
----------------------------------------------------------------------------
Tabbed by: joeytaboss
Email: joeykramer1981@yahoo.co.uk


http://www.jacksonunited.com/


Tuning: DADGBE - both guitars

This is how i heard the song, it sounds as in DROP-D but they may play it standard 
at gigs, enjoy.

intro: 1st verse:

  (remember goin' all the way, to Oakland just to see 'em play,
   we've come such a long way today).

e|----------------------------------------------------------------------|
B|----------------------------------------------------------------------|
G|----------------------------------------------------------------------|
D|-4444/6666/77077777\4444/6666/7777\0000/4444\2222\0000/7777\222222222-|
A|-4444/6666/77077777\4444/6666/7777\0000/4444\2222\0000/7777\222222222-|
D|-4444/6666/77077777\4444/6666/7777\0000/4444\2222\0000/7777\222222222-|


2nd verse: distortion:

  (got some drugs in the bathroom stall, sneaking beer into an empty un-lit hall, i sent 
a postcard today, don't mind the message).

e|------------------------------------------------------------------------------|
B|------------------------------------------------------------------------------|
G|------------------------------------------------------------------------------|
D|-4444/6666/77777777\4444/6666/7777\0000/4444\2222\0000/7777\22222222/33333333\|
A|-4444/6666/77777777\4444/6666/7777\0000/4444\2222\0000/7777\22222222/33333333\|
D|-4444/6666/77777777\4444/6666/7777\0000/4444\2222\0000/7777\22222222/33333333\|


1st chorus:

  (it was a good time we'll never have again, was a good time we never have, glad to see it end).

e|\-----------------------------------------------------------------------------|
B|\-----------------------------------------------------------------------------|
G|\-6666\4444\22222222/6666\4444\22222222/6666\4444\2222/6666\444444444444/5555-|
D|\-4444\2222\00000000/4444\2222\00000000/4444\2222\0000/4444\222222222222/3333-|
A|\-4444\2222\00000000/4444\2222\00000000/4444\2222\0000/4444\222222222222/3333-|
D|\-4444\2222\00000000/4444\2222\00000000/4444\2222\0000/4444\222222222222/3333-|


3rd verse:

  (i've put some miles on these eyes, put some scars on these broken hands of mine, 
walls and valentines to you, i've missed another).

e|------------------------------------------------------------------------------|
B|------------------------------------------------------------------------------|
G|------------------------------------------------------------------------------|
D|-4444/6666/77777777\4444/6666/7777\0000/4444\2222\0000/7777\22222222/33333333\|
A|-4444/6666/77777777\4444/6666/7777\0000/4444\2222\0000/7777\22222222/33333333\|
D|-4444/6666/77777777\4444/6666/7777\0000/4444\2222\0000/7777\22222222/33333333\|


2nd chorus:

  (it was a good time we'll never have again, was a good time we never have, glad to see it end.)
[ Tab from: http://www.guitaretab.com/j/jackson-united/184816.html ]
e|\-----------------------------------------------------------------------------|
B|\-----------------------------------------------------------------------------|
G|\-6666\4444\22222222/6666\4444\22222222/6666\4444\2222/6666\444444444444/5555-|
D|\-4444\2222\00000000/4444\2222\00000000/4444\2222\0000/4444\222222222222/3333-|
A|\-4444\2222\00000000/4444\2222\00000000/4444\2222\0000/4444\222222222222/3333-|
D|\-4444\2222\00000000/4444\2222\00000000/4444\2222\0000/4444\222222222222/3333-|


solo: ryhthm

e|--------------------------------------------------------------------------|
B|--------------------------------------------------------------------------|
G|--------------------------------------------------------------------------|
D|-4444/6666/77777777\4444/6666/7777\0000/4444\2222\0000/7777\22222222/3333-|
A|-4444/6666/77777777\4444/6666/7777\0000/4444\2222\0000/7777\22222222/3333-|
D|-4444/6666/77777777\4444/6666/7777\0000/4444\2222\0000/7777\22222222/3333-|


solo: lead

e|-------------------------------------------------------------------------|o
B|---14----14-14-14----14-----14-------------15-14-------14------14--------|o
G|---16b18-16-16---16----14---16b18-16-16-14-------14-16-16b18---16b18-16--|o
D|-------------------------------------------------------------------------|o
A|-------------------------------------------------------------------------|o
D|-------------------------------------------------------------------------|o

 o------------------------------------------------------|
 o----------------14-----14--14--14--14--14--15-14------|
 o-16-14-16-14-14---16-16--16--16--16--16--16-----16-14-|
 o------------------------------------------------------|
 o------------------------------------------------------|
 o------------------------------------------------------|

bridge - palm mute:

  (gone for a year today, can't see now i'm leaving anyway, i'm at the bar for you waiting).

e|----------------------------------------------------------------------|
B|----------------------------------------------------------------------|
G|----------------------------------------------------------------------|
D|-4444/6666/77777777\4444/6666/7777\0000/4444\2222\0000/7777\222222222-|
A|-4444/6666/77777777\4444/6666/7777\0000/4444\2222\0000/7777\222222222-|
D|-4444/6666/77777777\4444/6666/7777\0000/4444\2222\0000/7777\222222222-|
   xxxx/xxxx/xxxxxxxx\xxxx/xxxx/xxxx\xxxx/xxxx\xxxx\xxxx/xxxx\xxxxxxxxx

outro x7 ryhthm:

  (it was a good time we'll never have again, it was a good time we never had),

e|--------------------|
B|--------------------|
G|--------------------|
D|-4444\2222\00000000-|
A|-4444\2222\00000000-|
D|-4444\2222\00000000-|

lead comes in after fourth of ryhthm, played over top of course.

  (glad to see you again).

e|---------------------------------------|
B|---------------------------------------|
G|-11------/-12------/-14------/-16-\-14-|
D|-x--x4---/-x--x4---/-x--x3---/-x--\-x--|
A|-9-------/-10------/-12------/-14-\-12-|
D|---------------------------------------|

| /  slide up
| \  slide down
| b  Bend note
| x  Mute note
============================================================================
Related for All The Way tab