Song name
# A B C D E F G H I J K L M N O P Q R S T U V W X Y Z

Jackyl - Favorite Sin tab

I've been hearing this song on the radio a lot and to my surprise there was no tab yet.
It's pretty catchy so I thought I'd take a stab at the tab. It sounds like there are two guitars,
one in standard, one in drop D. This tab is in standard and just the intro until I have time
to tab the rest.

-------------------------------------------------------------------------------
                             FAVORITE SIN - Jackyl
-------------------------------------------------------------------------------
Tabbed by: sickstring11

Tuning: Standard

e|----------------------------------------------1------0------------|
B|---------3----1---3---1-------3-------3----------------------3----|
G|------------2----------------2-2----------0------0-------0--------| x2
D|-----0----0---------------------------------0------0-------0---0--|
A|-----------------------0-2/3--------------------------------------|
E|---------------------------------1/3------------------------------|

************************************

| /   slide up
| \   slide down
| h   hammer-on
| p   pull-off
| ~   vibrato
| +   harmonic
| x   Mute note
| b   Bend
| pb  Pre-bend
| br  Bend release
| pbr Pre-bend release
| brb Bend release bend

************************************
Tap to rate this tab
# A B C D E F G H I J K L M N O P Q R S T U V W X Y Z