Song name
# A B C D E F G H I J K L M N O P Q R S T U V W X Y Z

Jacob - Naghihintay tab

NAGHIHINTAY - JACOB

Intro:
e|-10---8-7-------5-3--------------6-5--------18-17-|
B|---------------------------3-4--------------------|
G|----------------------------------------18--------|
D|-------------7---------3--------------------------|
A|-----------7---------3----------------------------|
E|--------------------------------------------------|

Verse 1:
e|------------------------------------0--0--0-|
B|------------------------------------0--0--0-|
G|------------------------------------0--0--0-|
D|55555555-22222222-55555555555555555-5555555-|
A|55555555-22222222-33333333333333333-3333333-|
E|33333333-00000000---------------------------|
  kelan ba makikita ng iyong mga mata

e|-----------------------------------0--0--0-|
B|-----------------------------------0--0--0-|
G|-----------------------------------0--0--0-|
D|55555555-222222222-555555555555555-5555555-|
A|55555555-222222222-333333333333333-5555555-|
E|33333333-000000000-----------------5555555-|
  kelan ba maririnig sayo na tayo na

REFRAIN:
e|--------------------------------------------------------|
B|--------------------------------------------------------|
G|--------------------------------------------------------|
D|222222222222-4444444-5555555555555555555555555-44444444-|
A|222222222222-2222222-3333333333333333333333333-22222222-|
E|000000000000--------------------------------------------|
  wag mo akong sisihin kung ang lungkot ng aking damdamin

e|-----------------------------------------------|
B|-----------------------------------------------|
G|-----------------------------------------------|
D|22222222222-44444444444444-555555555-777777777-|
A|22222222222-22222222222222-333333333-555555555-|
E|00000000000------------------------------      |
  bakit di mo akong subukang suyuin... suyuin...

CHORUS:
e|--------------------------------------------------|
B|--------------------------------------------------|
G|--------------------------------------------------|
D|55555555555-4444444444444444444-2222222--44444444-|
A|33333333333-2222222222222222222-2222222--44444444-|
E|------------0000000000000000000-2222222--22222222-|
  naghihintay kahit parang walang pag-asa, handa na

e|----------------------------------------------|
B|----------------------------------------------|
G|----------------------------------------------|
D|555555555-44444444444444444444-222--444444444-|
A|333333333-22222222222222222222-222--444444444-|
E|----------00000000000000000000-222--222222222-|
  maghintay kahit pa mayron kang iba, bahala na

e|------------------------------------------------------------|
B|------------------------------------------------------------|
G|------------------------------------------------------------|
D|55555555555-444444444444-22222222--444444444444444444444444-|
A|33333333333-222222222222-22222222--444444444444444444444444-|
E|------------000000000000-22222222--222222222222222222222222-|
  naghihintay ako na ika'y makasama, kahit na, naghihintay...

e|------------------------|
B|------------------------|
G|55555555555555555555555-|
D|55555555555555555555555-|
A|33333333333333333333333-|
E|------------------------|
  kahit parang wala na...

INTRO 2:
e|-8-7----5-3-----------6-5-|
B|---------------3-4--------|
G|--------------------------|
D|--------------------------|
A|--------------------------|
E|--------------------------|

VERSE 2:
e|-----------------------------------------0--0--0-|
B|-----------------------------------------0--0--0-|
G|-----------------------------------------0--0--0-|
D|55555555-222222222222-555555555555555555-5555555-|
A|55555555-222222222222-333333333333333333-3333333-|
E|33333333-000000000000----------------------------|
  bakit ba di mo buksan ang iyong mga mata

e|---------------------------------------0--0--0-|
B|---------------------------------------0--0--0-|
G|---------------------------------------0--0--0-|
D|55555555555-22222222-55555555555555555-5555555-|
A|55555555555-22222222-33333333333333333-3333333-|
E|33333333333-00000000---------------------------|
  ng ang oras natin ay di na masayang pa

REFRAIN 2:
e|--------------------------------------------------------|
B|--------------------------------------------------------|
G|--------------------------------------------------------|
D|222222222222-4444444-5555555555555555555555555-44444444-|
A|222222222222-2222222-3333333333333333333333333-22222222-|
E|000000000000--------------------------------------------|
  wag mo akong sisihin kung ang lungkot ng aking damdamin

e|-----------------------------------------------|
B|-----------------------------------------------|
G|-----------------------------------------------|
D|22222222222-44444444444444-555555555-777777777-|
A|22222222222-22222222222222-333333333-555555555-|
E|00000000000------------------------------      |
  bakit di mo akong subukang suyuin... suyuin...

CHORUS 2:
e|--------------------------------------------------|
B|--------------------------------------------------|
G|--------------------------------------------------|
D|55555555555-4444444444444444444-2222222--44444444-|
A|33333333333-2222222222222222222-2222222--44444444-|
E|------------0000000000000000000-2222222--22222222-|
  naghihintay kahit parang walang pag-asa, handa na

e|----------------------------------------------|
B|----------------------------------------------|
G|----------------------------------------------|
D|555555555-44444444444444444444-222--444444444-|
A|333333333-22222222222222222222-222--444444444-|
E|----------00000000000000000000-222--222222222-|
  maghintay kahit pa mayron kang iba, bahala na

e|------------------------------------------------------------|
B|------------------------------------------------------------|
G|------------------------------------------------------------|
D|55555555555-444444444444-22222222--444444444444444444444444-|
A|33333333333-222222222222-22222222--444444444444444444444444-|
E|------------000000000000-22222222--222222222222222222222222-|
  naghihintay ako na ika'y makasama, kahit na, naghihintay...

e|------------------------|
B|------------------------|
G|55555555555555555555555-|
D|55555555555555555555555-|
A|33333333333333333333333-|
E|------------------------|
  kahit parang wala na...

ADLIB:
e|-10~--8-7~--5-3~----------6-5----------------------------------18-17b-|
B|-------------------3-3s4--------------------------------16-18---------|
G|------------------------------------7~--7s8-----8s7-------------------|
D|-------------------------------5-------------9-------5----------------|
A|---------------------------------5------------------------------------|
E|----------------------------------------------------------------------|

CHORUS 3:
e|--------------------------------------------------|
B|--------------------------------------------------|
G|--------------------------------------------------|
D|55555555555-4444444444444444444-2222222--44444444-|
A|33333333333-2222222222222222222-2222222--44444444-|
E|------------0000000000000000000-2222222--22222222-|
  naghihintay kahit parang walang pag-asa, handa na

e|----------------------------------------------|
B|----------------------------------------------|
G|----------------------------------------------|
D|555555555-44444444444444444444-222--444444444-|
A|333333333-22222222222222222222-222--444444444-|
E|----------00000000000000000000-222--222222222-|
  maghintay kahit pa mayron kang iba, bahala na

e|------------------------------------------------------------|
B|------------------------------------------------------------|
G|------------------------------------------------------------|
D|55555555555-444444444444-22222222--444444444444444444444444-|
A|33333333333-222222222222-22222222--444444444444444444444444-|
E|------------000000000000-22222222--222222222222222222222222-|
  naghihintay ako na ika'y makasama, kahit na, naghihintay...

e|------------------------|
B|------------------------|
G|--5---------------------|
D|--5---------------------|
A|--3---------------------|
E|------------------------|
  kahit parang wala na...

BRIDGE:
e|-----------------------------------------------------------------------------------|
B|-----------------------------------------------------------------------------------|
G|5555555555555555555555555555555555555555555555555555555555555555555555555555555----|
D|5555555555555555555555555555555555555555555555555555555555555555555555555555555----|
A|3333333333333333333333333333333333333333333333333333333333333333333333333333333----|
E|-----------------------------------------------------------------------------------|
  wag mo akong sisihin kung biglang sumuko ang damdamin di mo kasi ako pinapansin...

e|---------------------------|
B|---------------------------|
G|----------7s8~-------------|
D|---------------------------|
A|---------------------------|
E|-7--5--3-------------------|
Tap to rate this tab
# A B C D E F G H I J K L M N O P Q R S T U V W X Y Z