Song name
# A B C D E F G H I J K L M N O P Q R S T U V W X Y Z

Jacqueline Mannering - Raining tab

http://www.airtist.com/Blog/jacqueline-mannering-metal-canon-rock-shred-this-too-
michael-angelo-bation-airtist/

x = Mute note

plan 1
E-----------------------------------------------------------------------------|
B-----------------------------------------------------------------------------|
G-----------------------------------------------------------------------------|
D-6-x-x-6-x-x-6-x-x-6-6-6-6-x-x-6-x-x-6-x-x-6-6-6-4-x-x-4-x-x-4-x-x-4-4-4-4---|
A-4-x-x-4-x-x-4-x-x-4-4-4-4-x-x-4-x-x-4-x-x-4-4-4-2-x-x-2-x-x-2-x-x-2-2-2-2---|
E-----------------------------------------------------------------------------|

-----------------------------------------------------------------------------|
-----------------------------------------------------------------------------|
-------8p6---6------a faire qu'une fois--------------------------------------|
-----9-----9-----------------------------------------------------------------|
-----------------------------------------------------------------------------|
-----------------------------------------------------------------------------|
chorus
-----------------------------------------------------------------------------|
------9-10-9----------9-10-9------------4-5-4--------4-5-4-------4-----------|
--8-9--------9-8--8-9--------9-8--------------6-4-6--------6-4-6-------------|
-----------------------------------------------------------------------------|
-----------------------------------------------------------------------------|
-----------------------------------------------------------------------------|

------------------------------------------------------------------------------|
------------------------------------------------------------------------------|
-4-5-4-------4-5-4-------4-/-17-16-12-------9-10-9--------4-5-4-----------4---|
-------6-4-6-------6-4-6----------------8-9--------8-9-----------6-4-6--------|
------------------------------------------------------------------------------|
------------------------------------------------------------------------------|


-----------------------------------------------------------------------------|
-/14-------------------------------------------------------------------------|
-----------------------------------------------------------------------------|
-----------------------------------------------------------------------------|
-----------------------------------------------------------------------------|
-----------------------------------------------------------------------------|
Plan 2 (Egal au plan 1)
-----------------------------------------------------------------------------|
-----------------------------------------------------------------------------|
-----------------------------------------------------------------------------|
-----------------------------------------------------------------------------|
-----------------------------------------------------------------------------|
-----------------------------------------------------------------------------|


--Break de 6 sec puis:-4h5p4--------4h5p4--------4----4h5p4-------4-5-4------|
------------------------------6-4-6--------6-4-6------------6----------------|
-----------------------------------------------------------------------------|
-----------------------------------------------------------------------------|
-----------------------------------------------------------------------------|
-----------------------------------------------------------------------------|

----------------------------------------------(Not sure here)----------------|
--8p6-9-8-6---8p6-9-8/11-9-8-6-/-18----9-x-x--6h8--9-8-6----6-8-9-8-9-8-9-11-|
-----------------------------------------x-x--x------------------------------|
----------------------------------------------6------------------------------|
-----------------------------------------------------------------------------|

-----------------------------------------------------------------------------|
-16-16b-16--12-14--16-16b-16-12-14-12----------------------------------------|
-----------------------------------------------------------------------------|
-------------------------------------------13-14-16--13-14-16-13-14-16-------|
-----------------------------------------------------------------------------|
-----------------------------------------------------------------------------|
shred
----------------------------------------19/21--------------------------------|
-16-17-19--16-17-19-16-17-19--16-17-19---------------------------------------|
-----------------------------------------------------------------------------|
-----------------------------------------------------------------------------|
-----------------------------------------------------------------------------|
-----------------------------------------------------------------------------|
	x2			x2
------------------------------------------------------------------------------|
------9-10-9---------4-5-4-------4-5-4-------4----/17-16-12--------9-10-9-----|
--8-9--------9-8-----------6-4-6-------6-4-6-------------------8-9--------9---|
------------------------------------------------------------------------------|
------------------------------------------------------------------------------|
------------------------------------------------------------------------------|

		x2
-11-12-11-----------11-12-11----------11-------------------------------------|
-----------14-12-14----------14-12-14----------------------------------------|
-----------------------------------------------------------------------------|
-----------------------------------------------------------------------------|
-----------------------------------------------------------------------------|
-----------------------------------------------------------------------------|
Tap to rate this tab
# A B C D E F G H I J K L M N O P Q R S T U V W X Y Z