Song name
# A B C D E F G H I J K L M N O P Q R S T U V W X Y Z

Jacuzzi Boys - Burn It Down chords

Highlighted       Show chord diagrams
-----------------------------------------------------------------------------
                             Burn It Down - Jacuzzi Boys
-----------------------------------------------------------------------------
Tabbed by: Delaney
E-mail: lordtrazaza@gmail.com

Tuning: Standard

F                       F                      F  Eb  F  Eb
Give me all your magic girl bring it to the throne
F                       F                   F  Eb  F  Eb
Coming down the hillside leave that stuff alone
       F                 F                  F  Eb  F  Eb
Cause I've got what you need and what you don't
       F                  F                          F  Eb  F  Eb
And don't say that you'll leave cause you know you won't
Bb                                 F  Eb  F  Eb
See your love and baby burn it down
Bb                                  F  Eb  F  Eb
See your love and burn to the ground
      F               F             F  Eb  F  Eb
And don't you try to hide and disappear
      F               F              F  Eb  F  Eb
Cause every time you try you end up here
      F               F                   F  Eb  F  Eb
And I've got what you need and what you don't
      F                     F                        F  Eb  F  Eb
And don't say that you'll leave cause you know you won't
Bb                                 F  Eb  F  Eb
See your love and baby burn it down
Bb                                       F  Eb  F Eb
See your love and baby burn to the ground
             Ab  G F  Eb  F  Eb 
Ah to the ground
             Ab  G F  Eb  F  Eb
Ah to the ground
      F                    F                    F  Eb  F  Eb
I'm taking all your magic girl taking it back home
F                       F              F  Eb  F  Eb
Climbing up the hillside leaving you alone
       F                  F                 F  Eb  F  Eb
Cause I've got what you need and what you don't
    F             F          F  Eb  F  Eb
But I won't be around no I won't
Bb                                 F  Eb  F  Eb
See your love and baby burn it down
Bb                                       F  Eb  F  Eb
See your love and baby burn to the ground
             Ab  G F  Eb  F  Eb
Ah to the ground
             Ab  G F(end)
Ah to the ground 

This is the lead guitar part during the chorus
e|----------5---------5-----7b-7b-7b-7b-7b-7b-7b-7br----5-------------------|
B|----/7---------7--------------------------------------------7~------------|
G|--------------------------------------------------------------------------|
D|--------------------------------------------------------------------------|
A|--------------------------------------------------------------------------|
E|--------------------------------------------------------------------------|
Slight change during the last chorus
e|----------5---------5-----7b-7b-7b-7br----7----5--------------------------|
B|----/7---------7------------------------------------7----5----7~----------|
G|--------------------------------------------------------------------------|
D|--------------------------------------------------------------------------|
A|--------------------------------------------------------------------------|
E|--------------------------------------------------------------------------|

Email me with any corrections or questions.

http://jacuzziboys.com/

************************************

| /   slide up
| \   slide down
| h   hammer-on
| p   pull-off
| ~   vibrato
| +   harmonic
| x   Mute note
| b   Bend
| pb  Pre-bend
| br  Bend release
| pbr Pre-bend release
| brb Bend release bend

************************************
Tap to rate this tab
# A B C D E F G H I J K L M N O P Q R S T U V W X Y Z