Song name
# A B C D E F G H I J K L M N O P Q R S T U V W X Y Z

Jagged Edge - So High tab

Help us improve GuitareTab! Take a short survey!
Jagged Edge - So High

intro: (continues throughout the song)

e|------------------------------------|
B|-------9-9--------------------------|
G|-----8-----8-----------8-10-11-10-8-|
D|-6-9---------9-6-----8--------------|
A|-----------------6-9----------------|
E|------------------------------------|

background riff:

e|-6h7p6h7p6h7p6s4-4h6p4h6p4h6p4s2-|
B|---------------------------------|
G|---------------------------------|
D|---------------------------------|
A|---------------------------------|
E|---------------------------------|

the background riff isn't as tricky as it looks,
just hammer on and pull off between the 6th and the 7th fret,
then after a couple of hammerons/pullofs you slide down to the 4th fret,
then you do the exact same thing - hammer on and pull off between the 4th and 6th fret,
slide down to 2nd.
Related for So High tab