Song name
# A B C D E F G H I J K L M N O P Q R S T U V W X Y Z

Jaguar Love - I Started A Fire tab

Help us improve GuitareTab! Take a short survey!
This is the Demo to "I Started a Fire". There isn't much to this song. It's really 
But it's a lot of fun to play, so enjoy!

Intro/Chorus

E------------------------------------|
B------------------------------------|
G--4---------------8-------6---------|
D--4-[x8]--6-------8-[x8]--6-[x8]----|
A--2-------6-[x8]--6-------4---------|
E----------4-------------------------|


Verse

E--------------------------------------------------------------|
B--------------------------------------------------------------|
G--4-4---4-4-4---4-4-4---4-4-4---------------------------------|
D--4-4---4-4-4---4-4-4---4-4-4---6-6---6-6-6---6-6-6---6-6-6---|
A--2-2---2-2-2---2-2-2---2-2-2---6-6---6-6-6---6-6-6---6-6-6---|
E--------------------------------4-4---4-4-4---4-4-4---4-4-4---|(Repeat x2)

The third time, the chords switch up a bit. Repeat the verse, then play this:

E----------------------------------------0-----0------------|
B------------------------------------------0-----0~---------|
G--------------------------------------------1--------------|
D---4-4---4-4-4---4-4-4---4-4-4---4-2~----------------------|
A---4-4---4-4-4---4-4-4---4-4-4---4-2~----------------------|
E---2-2---2-2-2---2-2-2---2-2-2---2-0~----------------------|


Outro

E---------------------|
B---------------------|
G--4------------------|
D--4-[X8]--6----------|(Repeat until end)
A--2-------6-[X8]-----|
E----------4----------|


Song Order:

Intro (drum machine)
Chorus
Verse
Chorus
Verse
Bridge (No Guitar)
Chorus
Outro
Related for I Started A Fire tab