Song name
# A B C D E F G H I J K L M N O P Q R S T U V W X Y Z

Jake E Lee - Crazy Train tab

Here it is jake fans i take no credit for working out the notes some other guy did it i 
a few maybe off but its fairly close you could use it as a guide? all i did is tab it.


e|------------------------------16-------------13~~--19-17------19-17-19-17--|
B|--12b---------------------12b---16-16------13-----------19-17--------------|
G|--11b-11b-11b-11b-11b-9---------------15-15--------------------------------|
D|------------------------12-------------------------------------------------|
A|---------------------------------------------------------------------------|
E|---------------------------------------------------------------------------|

e|----14-19-17-------19-17-19-17----14-19-17-------17-19-17------------------|
B|-17----------19-17-------------17----------19-17---------19b-20---19-------|
G|----------------------------------------------------------------21--21~----|
D|---------------------------------------------------------------------------|
A|---------------------------------------------------------------------------|
E|---------------------------------------------------------------------------|

e|-----------------------|----------------------------------------------------|
B|-----------------------|----------------------------------------------------|
G|-----------------------|----------------------------------------------------|
D|-------------4-2-0-----|-----0----------------------------------------------|
A|-------------------4b--|---4---4--2-0--0-2-0--------------------------------|
E|-14b-12-10-9-----------|-22-2-2-2-----4------4-0----------------------------|
Tap to rate this tab
# A B C D E F G H I J K L M N O P Q R S T U V W X Y Z