Song name
# A B C D E F G H I J K L M N O P Q R S T U V W X Y Z

Jake Owen - Eight Second Ride tab

check out my youtube site for instructional videos http://www.youtube.com/user/benm1888

Intro/ turn around(played after chorus)/ outro

e---------------------------------------------------------------------------|
b----------5h6p5------------------------------------------------------------|
g------5h7-------5--7p5-----------------------------------------------------|
d--5h7------------------7p5-7--5p3h5-5p3h5-5brp3----------------------------|
a------------------------------------------------5p3h5----------------------|
E---------------------------------------------------------------------------|

e---------------------------------------------------------------------------|
b----------5h6p5------------------------------------------------------------|
g------5h7-------5--7p5-----------------------------------------------------|
d--5h7------------------7p5--7--7p5--5p3--5p3--5b---------------------------|
a---------------------------------------------------------------------------|
E---------------------------------------------------------------------------|
Tap to rate this tab
 
# A B C D E F G H I J K L M N O P Q R S T U V W X Y Z