Song name
# A B C D E F G H I J K L M N O P Q R S T U V W X Y Z

James Blunt - Youre Beautiful chords

Highlighted       Show chord diagrams
Hey Guys This is My 1st "tab" on this site.
I hope I got it right, I used my ears. :)

Yeah, and don't forget to use the capo as the new nut. ^^



You're Beautiful 
by James Blunt

Capo 1st fret
Standard Tuning


Intro: (Listen to song for strumming)
   
   D                   A                   Bm                  G
e--2--2--0--2--0--2-|--0--0--0--0--0--0-|--1--1--1--1--1--1-|--3--3--3--3--3
B--3--3--3--3--3--3-|--3--3--0--3--0--3-|--2--2--1--2--1--2-|--3--3--3--3--3
G--2--2--2--2--2--2-|--3--3--3--3--3--3-|--3--3--3--3--3--3-|--4--4--4--4--4
D--0--0--0--0--0--0-|--3--3--3--3--3--3-|--3--3--3--3--3--3-|--x--x--x--x--x
A--x--x--x--x--x--x-|--0--0--0--0--0--0-|--1--1--1--1--1--1-|--x--x--x--x--x
E--x--x--x--x--x--x-|--x--x--x--x--x--x-|--x--x--x--x--x--x-|--x--x--x--x--x

    p-pull off    h- hammer on  s-slide 
e--------------------------|---------------/  R  }
B-----3p2h3-----3p2h3--s5--|--3p2h3--------/  E  }
G--------------------------|---------------/  P  } Haha, It fits xD
D--4---------4-------------|---------4--5--/  E  }
A--------------------------|---------------/  A  }
E--------------------------|---------------/  T  }
 My life is brilliant. (2nd time around)

 D
 My life is brilliant.
 A
 My love is pure.
 Bm
 I saw an angel.
 G
 Of that I'm sure.
      D
 She smiled at me on the subway.
         A
 She was with another man.
     Bm
 But I won't lose no sleep on that,
'Cause I've got a plan.

e------|
B--5s7-|
G--4s6-|  *For the moment lets just call this progression X-Y.
D--2s4-|   
A------|
E------|

CHORUS:

 X-Y G           A     D
      You're beautiful. You're beautiful.
 X-Y G            A            D
      You're beautiful, it's true.
 X-Y G            A         Bm - A  G    
      I saw your face in a crowded place,
         Bm            A        Bm
      And I don't know what to do,
                  G     A       D
      'Cause I'll never be with you.


(Repeat Plucking in Intro once)

        D
 Yeah, she caught my eye,
        A
 As we walked on by.
            Bm
 She could see from my face that I was,
G
 Fucking high, 
     D                        A
 And I don't think that I'll see her again,
     Bm                           Bm
 But we shared a moment that will last till the end.

CHORUS

X-Y G              A  D
     You're beautiful. You're beautiful.
X-Y G              A          D
     You're beautiful, it's true.
X-Y G             A        Bm - A  G
     I saw your face in a crowded place,
           Bm          A       Bm
     And I don't know what to do,
                 G     A        D
     'Cause I'll never be with you.

INTERLUDE:  
      X-Y  G     Bm   G     Bm    G    Bm    A
            nananana...nananana...nananana...na

CHORUS 2:

    G              A  D  
     You're beautiful. You're beautiful.
X-Y G              A          D
     You're beautiful, it's true.
X-Y G                  A           Bm   -   A    G
     There must be an angel with a smile on her face,
    G                                  A           Bm - A - G        
     When she thought up that I should be with you.
              Bm       A        Bm
     But it's time to face the truth,
            G     A         D
     I will never be with you. 




#Thank you! ^_^

if there's anything wrong with it please tell me...
Tap to rate this tab
 
# A B C D E F G H I J K L M N O P Q R S T U V W X Y Z