Guitaretab - guitar tabs
Song name
# A B C D E F G H I J K L M N O P Q R S T U V W X Y Z

James Blunt - Same Mistake tab

James Blunt  Same Mistake
Tabbed and arranged by: Alejandro Manzano of Boyce Avenue

www.myspace.com/boyceavenue

video of me playing/singing it:
http://www.youtube.com/watch?v=Ef0hRmYbNeE

Tuning: Standard (capo 2nd fret)

^ = pull off

Intro: (finger picking)
----3-------3--------3^2----|
---3-3-----3-3-----3----3---|
--0---0-0-0---0-0-2------2--|
-----------------0--0-----0-|
-2-----2-3-----3------------|
----------------------------|

Verse 1: (finger picking)
----3-------3-------3-------3-----|
---3-3-----3-3-----3-3-----3-3----|
--0---0-0-0---0-0-0---0-0-0---0-0-|
---------0-----0---------0--------|
----------------------------------|
-3-----3---------3-----3-------2--|

----0-------0-------0-------0---0-|
---0-0-----0-0-----0-0-----0---0--|
--0---0-0-0---0-0-0---0-0---------|
---------2-----2---------2---0----|
----------------------------------|
-0-----0---------0-----0----------|

----0-------0-------0-------0--|
---1-1-----1-1-----1-1-----1---|
--0---0-0-0---0-0-0---0-0------|
---------2-----2---------2---0-|
-3-----3---------3-----3-------|
-------------------------------|
[ Tab from: http://www.guitaretab.com/j/james-blunt/92484.html ]
Pre-chorus:
-3----2-0----0----3----2-|
-3----3-0----1----3----3-|
-0----2-0----0----0----2-|
-0----0-2----2----0----0-| (strumming w/ fingers)
-2----0-2----3----2----0-|
-3----2-0---------3----2-|

Chorus 1: (strumming w/ fingers)
-0----3----2----0----0----0----0----2-|
-1----3----3----0----1----0----1----3-|
-0----0----4----0----0----0----0----2-|
-2----0----4----2----2----2----2----0-|
-3----2----2----2----3----2----3----0-|
------3---------0---------0---------2-|

Verse 2: (pick strumming)
-3----3----2-0----0----2-|
-3----3----3-0----1----3-|
-0----0----2-0----0----2-|
-0----0----0-2----2----0-|
-2----2----0-2----3----0-|
-3----3----2-0---------2-|

Chorus 2 and 3: (pick strumming)
-0----3----2----0----0----0----0----2-|
-1----3----3----0----1----0----1----3-|
-0----0----4----0----0----0----0----2-|
-2----0----4----2----2----2----2----0-|
-3----2----2----2----3----2----3----0-|
------3---------0---------0---------2-|

-0----3----2----0----0----0----0----2----3-|
-1----3----3----0----1----0----1----3----3-|
-0----0----4----0----0----0----0----2----0-|
-2----0----4----2----2----2----2----0----0-|
-3----2----2----2----3----2----3----0----2-|
------3---------0---------0---------2----3-|
Related for Same Mistake tab