Song name
# A B C D E F G H I J K L M N O P Q R S T U V W X Y Z

James Brown - Unchained tab

Tuning:
E
B
G
D
A
Eb

Low E string is half step down.


E---------------------------------------------------------|
B---------------------------------------------------------|
G---------------------------------------------------------|
D---------------------------------------------------------|
A---------1-----1--4--1--4--6/8--8-6--4-1-----------------|
Eb--2--5-----5-----------------------------5--2--0--------|

E---------------------------------------------------------|
B-------------2-------------------------------------------|
G----------3-3---3-1--------------------------------------|
D--------------------3-1-1-3-1----------------------------|
A---------1--------------------4-1--------1---------------|
Eb--2--5----------------------------2--5-----5--2--0------|

Then their is a part with 4 chords that i didn't manage to find..



First tab :)
Tap to rate this tab
# A B C D E F G H I J K L M N O P Q R S T U V W X Y Z