Song name
# A B C D E F G H I J K L M N O P Q R S T U V W X Y Z

James Colin - Speechless tab

"Speechless"  
Album: Colin James  "Bad Habits"

                                                                                
E----------------------------------------------------------|--------------------
B------------------------------10^--(10)--8h10~~~--10^~~~--|--------------------
G---12~~~--14^--12------12~~~------------------------------|--------------------
D-------------------14-------------------------------------|--------------------
A----------------------------------------------------------|--------------------
E----------------------------------------------------------|--------------------
                                                                                

                                                                                
E-------------------------------------------------------------------------------
B-----------------------------------------10^--(10)--8----------8--10--8--------
G---9--12~~~--14^--12------12~~~h(14)-------------------11--11------------11----
D----------------------14-------------------------------------------------------
A-------------------------------------------------------------------------------
E-------------------------------------------------------------------------------
                                                                                

                                                                                
E--------------------------------------------|----------------------------------
B--------------------------------------------|----------------------------------
G---9--7--9p7--------------------------------|----------------------------------
D--------------7^--(7)--5--7^--(7)--5--7-----|----------------------------------
A--------------------------------------------|----------------------------------
E--------------------------------------------|----------------------------------
                                                                                

                                                                                
E-----------------------------------------------------------------------|-------
B---------------------------------8--8h10--10^--(10)--8-----8~~~--(10)--|-------
G------14^--12h14p12----------\9-------------------------9--------------|-------
D---------------------14~~~---------------------------------------------|-------
A-----------------------------------------------------------------------|-------
E-----------------------------------------------------------------------|-------
                                                                                

                                                                                
E---------------------------------------------------------------|---------------
B---------------------------------------------------------------|---------------
G---14^--12h14p12------------7h9p7-----------------7h9----------|---------------
D------------------14~~~------------7p5--7p5--7\9-------7h9~~~--|---------------
A---------------------------------------------------------------|---------------
E---------------------------------------------------------------|---------------
                                                                                

                                                                                
E-------------------------------------------------------------------------------
B--------7--7--7h8----8-----8~~~h10----8--10\11--11p10p8--10-----8---h10/-------
G---7h9-----------\9-----9---------\9-------------------------9-----------------
D-------------------------------------------------------------------------------
A-------------------------------------------------------------------------------
E-------------------------------------------------------------------------------
                                                                                

                                                                                
E-------------------------------------------------------------------|-----------
B-------------------------------------------------------------8--8--|-----------
G--------7~~~-----9^--(9)--7--9--9^--(9)--7--9-----7--9---\9--------|-----------
D---7h9-----------------------------------------9-------------------|-----------
A-------------------------------------------------------------------|-----------
E-------------------------------------------------------------------|-----------
                                                                                

                                                                                
E-------------------------------------------------------------------------------
B--------8--10^--(10)--8--12--10^--(10)-----8h10--8--10^--10^--(10)--8---h10----
G---7\9-------------------------------------------------------------------------
D-------------------------------------------------------------------------------
A-------------------------------------------------------------------------------
E-------------------------------------------------------------------------------
                                                                                

                                                                                
                                                                          
E----------------------------------------8--10----------------------------------
B--------8-----8---\12--10^--(10)--8h10---------10^--(10)--8-----8------11---p8-
G---7\9-----9-------------------------------------------------9------9----------
D-------------------------------------------------------------------------------
A-------------------------------------------------------------------------------
E-------------------------------------------------------------------------------
                                                                                

                                                                                
E-------------------------------------------------------------------------------
B--------8-----10^--(10)--8--10~~~--8--10^--10^--(10)p(8)-------8--10-----------
G---7\9-----9----------------------------------------------7\9---------7\9~~~---
D-------------------------------------------------------------------------------
A-------------------------------------------------------------------------------
E-------------------------------------------------------------------------------
                                                                                

                                                                                
E-------------------------------------------------------------------------------
B--------10--\11--\12-----------------------------------------------------------
G--------10--\11--\12-----------------------------------------------------------
D--------10--\11--\12-----------------------------------------------------------
A---------8---\9--\10-----------------------------------------------------------
E-------------------------------------------------------------------------------
                                                                                
The second part of solo repeats with a little more improvization....


================================================================================
==                           TABLATURE EXPLANATION                            ==
================================================================================

----------                ----------                ----t---
----5h8--- Hammeron       ----(8)--- Ghost          ----6--- Tap
----------                ---------- Note           --------
----5p8--- Pulloff        ----------                --------

----------                ----------                -----p--
----5/8--- Slide Up       -----x---- Dead           -----7-- Pop
----------                ---------- Note           --s-----
----5\8--- Slide Down     ----------                --5----- Slap 

----------                ||------|| Repeat         --------
----5~~~-- Vibrato        ||*----*||                ---5^--- Bend
----------                ||*----*||                --------
----------                ||------||                --------
Tap to rate this tab
# A B C D E F G H I J K L M N O P Q R S T U V W X Y Z