Guitaretab - guitar tabs
Song name
# A B C D E F G H I J K L M N O P Q R S T U V W X Y Z

James Jake - Addiction tab

Adiction
By James Kiefer (ArchNME)

chorus
-----------------------------------------------------------|
-----------------------------------------------------------|
---------------4---------------------7-------7-------7-----|
----2----2----4----2---2-----5----7-------7-------7--------|
----2----2----2----2---2-----5----5-------5-------5--------|
----0----0----------0---0-----3----------------------------|


------------------------------------------------------------|
------------------------------------------------------------|
---------------------4-----------------------7--------------|
 ----2----2----2----4----2---2-----5------7-----------------|
 ----2----2----2----2----2---2-----5------5-----------------|
 ----0----0----0----------0---0-----3-----------------------|
[ Tab from: http://www.guitaretab.com/j/james-jake/125926.html ]
verse
------------------------------------------------------------------|
------------------------------------------------------------------|
------------------------------------------------------------------|
------------------------------------------------------------------|
---------------2---------------------5---------5-----5------------|
----0----0---------0-----0-----3-----------3-----3----3-----------|
with palm mute

bridge
-----------------------------------------------------------------|
-----------------------------------------------------------------|
-----------------------------------------------------------------|
---------------------4----------------------------------4--------|
222222222222-----2------------000000000000-----4-----------------|
-----------------------------------------------------------------|

--------------------------------------------------------------------|
--------------------------------------------------------------------|
--------------------------------------------------------------------|
----------------------4----------------------------------------4----|
--------------------------------------------------------------------|
--555555555555--------5-------------333333333333--------------------|

2nd time pic slide
bass start * ? of chorus
chorus *1
verse*1
chorus*2
verse*1
chorus*2
bridge*1
chorus*2
verse*1
chorus*2
end
Advertisement will be closed in 10 seconds