Song name
# A B C D E F G H I J K L M N O P Q R S T U V W X Y Z

James Pierpont - Jingle Bells tab

This is my first tab so ya.....



E|-----0-------------------0------------1--0--------3--3--1-----0-----|
B|--------3--1----------------3--1------------3--0-----------3--------|
G|--0-----------0--0--0--0---------2--2-------------------------------|
D|--------------------------------------------------------------------|
A|--------------------------------------------------------------------|
E|--------------------------------------------------------------------|


E|-----0--------------------0-----------------1--0-----3--3--3--3--5--|
B|--------3--1-----------------3--1-----------------3-----------------|
G|--0-----------0--0--0--0-----------2--2--2--------------------------|
D|--------------------------------------------------------------------|
A|--------------------------------------------------------------------|
E|--------------------------------------------------------------------|


E|-3--1--------3--0--0--0--0--0--0--0--3--------0--1--1--1--1--1--0--0|
B|--------3--1-----------------------------1--3-----------------------|
G|--------------------------------------------------------------------|
D|--------------------------------------------------------------------|
A|--------------------------------------------------------------------|
E|--------------------------------------------------------------------|


E|--0--------0-----3--0--0--0--0--0--0--0--3--------0--1--1--1--1--1--|
B|-----3--3-----3-----------------------------1--3--------------------|
G|--------------------------------------------------------------------|
D|--------------------------------------------------------------------|
A|--------------------------------------------------------------------|
E|--------------------------------------------------------------------|


E|--0--0--0--0--3--3--1-----------------------------------------------|
B|-----------------------3--1-----------------------------------------|
G|--------------------------------------------------------------------|
D|--------------------------------------------------------------------|
A|--------------------------------------------------------------------|
E|--------------------------------------------------------------------|
Tap to rate this tab
# A B C D E F G H I J K L M N O P Q R S T U V W X Y Z