Song name
# A B C D E F G H I J K L M N O P Q R S T U V W X Y Z

James Taylor - Fire And Rain tab

-------------------------------------------------------------------------------
                         FIRE AND RAIN  James Taylor
                                (James Taylor)
                            Sweet Baby James [1970]
-------------------------------------------------------------------------------


Tabbed by: varannion
Email:     dm_hughes1@hotmail.com

Tuning: standard
Capo:   third fret (Notes at the third fret are considered to be open and are 
notated as 0. Fret numbers remain unchanged for all other notes)


  Intro
      C                        Gm7
e|-----------8--------------|---------6-----------------|
B|----------------8---------|--------------6------------|
G|----7/9--------------9----|--9\7--------------7-------|
D|--------------------------|------------------------0--|
A|----0---------------------|---------------------------|
E|--------------------------|--0------------------------|



      F                      C                            Csus4    Csus2
e|----0--h5-----0--h5----0--(0)--|-(0)---(0)--------------0----0--(0)-------|
B|----6--(6)----6---6----0--h5---|-(5)---(5)--------------6----5--p0--------|
G|----5--(5)---(5)--5----5--(5)--|-(5)----5---------------5----5--(5)----5--|
D|---(0)-----------------5--(5)--|-(5)---(5)--------------------------------|
A|-----------------------0--(0)--|-(0)----------0----0---(0)----------------|
E|-------------------------------|------------------------------------------|


                                                      co
      C                           G
e|----0--(0)-------------------|-------------------------|
B|----0--h5----------5---------|--0----------------------|
G|----5--(5)----5--------------|--4---------4------------|
D|----5--(5)-------------------|--5----5---------5----0--|
A|----0--(5)--------------0----|-------------------------|
E|-----------------------------|--0----------------------|



      Bbmaj7
e|--------------------------------5--|-(5)--6--------------------------|
B|----------------6--(6)-------------|------------------------6p0------|
G|------------0----------------------|--------------0--(0)----------0--|
D|--------0--------------------------|---------------------------------|
A|------------------------0----------|---------------------------------|
E|----6---------------6-------6------|--6-------6-------6-------6------|

  Verse 1

      C                      Gm7                    Fsus2
e|--------------8---------|--6-------------------|-----------------0----|
B|---------8--------------|-------6---------6----|------------6---------|
G|----9--------------9----|------------7---------|--5----5--------------|
D|------------------------|----------------------|--0-------------------|
A|----0-------------------|----------------------|----------------------|
E|------------------------|--0-------------------|----------------------|

                                 co

      C
e|--------------0--(0)---------0----|--0--(0)---------0---------|
B|--------------0--h5----------0----|--0--h5--------------------|
G|---------5--------------5---------|------------5--------------|
D|----5-----------------------------|-----(5)--------------5p0--|
A|----0-----------------------------|-(0)-----------------------|
E|----------------------------------|---------------------------|



      G                       Bb5
e|-------------------------|--------------------------|
B|---------------0---------|-------------6------------|
G|----------4---------4p0--|-(0)-------------------0--|
D|-------------------------|--------0-----------------|
A|-(0)h5-------------------|--------------------------|
E|-------------------------|--6---------------6-------|



      F/Bb                Bb5                 C
e|-------5---------------------------------|------------8---------|
B|------------6-----------------6----------|-------8--------------|
G|---(0)h5------------0---(0)-----------0--|--9--------------9\7--|
D|-----------------------------------------|----------------------|
A|-----------------------------------------|--0-------------------|
E|------(6)-------6-------(6)--------6-----|----------------------|



      Gm7                    F                      C
e|----6--------------6----|------------5---------|---------0--(0)--------0-------|
B|--------------6---------|-----------------6----|---------0--h5---------0-------|
G|---------7--------------|-------5--------------|------------------5---------5--|
D|------------------------|--0-------------------|-------------------------------|
A|------------------------|----------------------|--0----------------------------|
E|----0-------------------|----------------------|-------------------------------|



      C                           G
e|----0--(0)--------0----------|----------------------------------|
B|----0--h5---------5----------|--0---------------0---------------|
G|-------------5----5----------|--4---------------4---------------|
D|-----------------------------|--5---------------5---------------|
A|----0------------------------|----------------------------------|
E|-----------------------------|--0-------------------------------|


                           co
      F/Bb
e|------------------------------|--5-------------------------------|
B|--------------6---------------|-------6----------------6---------|
G|----5---------5----------0----|------------5p0---------5----5p0--|
D|---------0---(0)--------------|-------------------0--------------|
A|------------------------------|----------------------------------|
E|----6---------------6---------|-(6)------------------------------|

  Chorus

      F              F/E                 F/D             F/G
e|----5---------------5---------------|--5---------------5---------------|
B|----6---------------6---------------|--6---------------6---------------|
G|----5-------5-------5---------------|--5---------------5---------------|
D|----0-------------------------------|----------------------------------|
A|--------------------7---------------|--5-------------------------------|
E|------------------------------------|------------------0---------------|


                                   mu
      C     
e|------------0--(0)---------0---------|--0--(0)-------0--(0)------|
B|----5-------0--h5----------0---------|--0--h5--------0--h5-------|
G|----5-------5--(5)----5--------------|--5--(5)-------5--(5)------|
D|----5--------------------------------|---------------------------|
A|----0---------------------------(0)--|--0------------------------|
E|-------------------------------------|---------------------------|



      F              F/E                 F/D             F/G
e|----5---------------5---------------|--5---------------5---------------|
B|----6---------------6---------------|--6---------------6---------------|
G|----5-------5-------5---------------|--5---------------5---------------|
D|----0-------------------------------|----------------------------------|
A|--------------------7---------------|--5-------------------------------|
E|------------------------------------|------------------0---------------|


                                   mu
      C     
e|------------0--(0)---------0---------|--0--(0)-------0--(0)------|
B|----5-------0--h5----------0---------|--0--h5--------0--h5-------|
G|----5-------5--(5)----5--------------|--5--(5)-------5--(5)------|
D|----5--------------------------------|---------------------------|
A|----0---------------------------(0)--|--0------------------------|
E|-------------------------------------|---------------------------|



      F              F/E                 F/D             F/G
e|----5---------------5---------------|--5---------------5---------------|
B|----6---------------6---------------|--6---------------6---------------|
G|----5-------5-------5---------------|--5---------------5---------------|
D|----0-------------------------------|----------------------------------|
A|--------------------7---------------|--5-------------------------------|
E|------------------------------------|------------------0---------------|


                                   mu
      C     
e|------------0--(0)---------0---------|--0--(0)-------0--(0)------|
B|----5-------0--h5----------0---------|--0--h5--------0--h5-------|
G|----5-------5--(5)----5--------------|--5--(5)-------5--(5)------|
D|----5--------------------------------|---------------------------|
A|----0---------------------------(0)--|--0------------------------|
E|-------------------------------------|---------------------------|



      Badd9           Fadd9/A            Gsus4           Gm7
e|--------------------0---------------|----------------------------------|
B|----0---------------6---------------|----------------------------------|
G|----5---------------5---------------|--5---------------0---------------|
D|----0---------------0---------------|--5-------5-------0---------------|
A|------------------------------------|--5---------------5---------------|
E|----6---------------5---------------|--0---------------0---------------|



      Gm/C
e|----0------0----0----0----0----0----0--|-(0)---0----0----0----0----0----0----0--|
B|----0------0----0----0----0----0----0--|-(0)---0----0----0----0----0----0----0--|
G|----0------0----0----0----0----0----0--|-(0)---0----0----0----0----0----0----0--|
D|----5------5----5----5----5----5----5--|-(5)---5----5----5----5----5----5----0--|
A|----0------0----0----0----0----0----0--|-(0)---0----0----0----0----0----0----0--|
E|---------------------------------------|----------------------------------------|



      Csus2
e|----0------0----0----0----0----0----0--|--0----0----0----0----0----0----0---0--|
B|----0------0----0----0----0----0----0--|--0----0----0----0----0----0----0---0--|
G|----5------5----5----5----5----5----5--|--5----5----5----5----5----5----5---5--|
D|----5------5----5----5----5----5----5--|--5----5----5----5----5----5----5---5--|
A|----0------0----0----0----0----0----0--|--0----0----0----0----0----0----0---0--|
E|---------------------------------------|---------------------------------------|

  Verse 2

      C                      Gm7                    Fsus2
e|--------------8---------|--6-------------------|-----------------0----|
B|---------8--------------|-------6---------6----|------------6---------|
G|----9--------------9----|------------7---------|--5----5--------------|
D|------------------------|----------------------|--0-------------------|
A|----0-------------------|----------------------|----------------------|
E|------------------------|--0-------------------|----------------------|

                                 co

      C
e|--------------0--(0)---------0----|--0--(0)---------0---------|
B|--------------0--h5----------0----|--0--h5--------------------|
G|---------5--------------5---------|------------5--------------|
D|----5-----------------------------|-----(5)--------------5p0--|
A|----0-----------------------------|-(0)-----------------------|
E|----------------------------------|---------------------------|



      G                       Bb5
e|-------------------------|--------------------------|
B|---------------0---------|-------------6------------|
G|----------4---------4p0--|-(0)-------------------0--|
D|-------------------------|--------0-----------------|
A|-(0)h5-------------------|--------------------------|
E|-------------------------|--6---------------6-------|



      F/Bb                Bb5                 C
e|-------5---------------------------------|------------8---------|
B|------------6-----------------6----------|-------8--------------|
G|---(0)h5------------0---(0)-----------0--|--9--------------9\7--|
D|-----------------------------------------|----------------------|
A|-----------------------------------------|--0-------------------|
E|------(6)-------6-------(6)--------6-----|----------------------|



      Gm7                    F                      C
e|----6--------------6----|------------5---------|---------0--(0)--------0-------|
B|--------------6---------|-----------------6----|---------0--h5---------0-------|
G|---------7--------------|-------5--------------|------------------5---------5--|
D|------------------------|--0-------------------|-------------------------------|
A|------------------------|----------------------|--0----------------------------|
E|----0-------------------|----------------------|-------------------------------|



      C                           G
e|----0--(0)--------0----------|----------------------------------|
B|----0--h5---------5----------|--0---------------0---------------|
G|-------------5----5----------|--4---------------4---------------|
D|-----------------------------|--5---------------5---------------|
A|----0------------------------|----------------------------------|
E|-----------------------------|--0-------------------------------|


                           co
      F/Bb
e|------------------------------|--5-------------------------------|
B|--------------6---------------|-------6----------------6---------|
G|----5---------5----------0----|------------5p0---------5----5p0--|
D|---------0---(0)--------------|-------------------0--------------|
A|------------------------------|----------------------------------|
E|----6---------------6---------|-(6)------------------------------|

 Chorus

      F              F/E                 F/D             F/G
e|----5---------------5---------------|--5---------------5---------------|
B|----6---------------6---------------|--6---------------6---------------|
G|----5-------5-------5---------------|--5---------------5---------------|
D|----0-------------------------------|----------------------------------|
A|--------------------7---------------|--5-------------------------------|
E|------------------------------------|------------------0---------------|


                                   mu
      C     
e|------------0--(0)---------0---------|--0--(0)-------0--(0)------|
B|----5-------0--h5----------0---------|--0--h5--------0--h5-------|
G|----5-------5--(5)----5--------------|--5--(5)-------5--(5)------|
D|----5--------------------------------|---------------------------|
A|----0---------------------------(0)--|--0------------------------|
E|-------------------------------------|---------------------------|



      F              F/E                 F/D             F/G
e|----5---------------5---------------|--5---------------5---------------|
B|----6---------------6---------------|--6---------------6---------------|
G|----5-------5-------5---------------|--5---------------5---------------|
D|----0-------------------------------|----------------------------------|
A|--------------------7---------------|--5-------------------------------|
E|------------------------------------|------------------0---------------|


                                   mu
      C     
e|------------0--(0)---------0---------|--0--(0)-------0--(0)------|
B|----5-------0--h5----------0---------|--0--h5--------0--h5-------|
G|----5-------5--(5)----5--------------|--5--(5)-------5--(5)------|
D|----5--------------------------------|---------------------------|
A|----0---------------------------(0)--|--0------------------------|
E|-------------------------------------|---------------------------|



      F              F/E                 F/D             F/G
e|----5---------------5---------------|--5---------------5---------------|
B|----6---------------6---------------|--6---------------6---------------|
G|----5-------5-------5---------------|--5---------------5---------------|
D|----0-------------------------------|----------------------------------|
A|--------------------7---------------|--5-------------------------------|
E|------------------------------------|------------------0---------------|


                                   mu
      C     
e|------------0--(0)---------0---------|--0--(0)-------0--(0)------|
B|----5-------0--h5----------0---------|--0--h5--------0--h5-------|
G|----5-------5--(5)----5--------------|--5--(5)-------5--(5)------|
D|----5--------------------------------|---------------------------|
A|----0---------------------------(0)--|--0------------------------|
E|-------------------------------------|---------------------------|



      Badd9           Fadd9/A            Gsus4           Gm7
e|--------------------0---------------|----------------------------------|
B|----0---------------6---------------|----------------------------------|
G|----5---------------5---------------|--5---------------0---------------|
D|----0---------------0---------------|--5-------5-------0---------------|
A|------------------------------------|--5---------------5---------------|
E|----6---------------5---------------|--0---------------0---------------|



      Gm/C
e|----0------0----0----0----0----0----0--|-(0)---0----0----0----0----0----0----0--|
B|----0------0----0----0----0----0----0--|-(0)---0----0----0----0----0----0----0--|
G|----0------0----0----0----0----0----0--|-(0)---0----0----0----0----0----0----0--|
D|----5------5----5----5----5----5----5--|-(5)---5----5----5----5----5----5----0--|
A|----0------0----0----0----0----0----0--|-(0)---0----0----0----0----0----0----0--|
E|---------------------------------------|----------------------------------------|



      Csus2
e|----0------0----0----0----0----0----0--|--0----0----0----0----0----0----0---0--|
B|----0------0----0----0----0----0----0--|--0----0----0----0----0----0----0---0--|
G|----5------5----5----5----5----5----5--|--5----5----5----5----5----5----5---5--|
D|----5------5----5----5----5----5----5--|--5----5----5----5----5----5----5---5--|
A|----0------0----0----0----0----0----0--|--0----0----0----0----0----0----0---0--|
E|---------------------------------------|---------------------------------------|

  Bridge

      C                                  Gm7/C
e|----0---------------0---------------|--0---------------0---------------|
B|----5---------------5---------------|--6---------------6---------------|
G|----5---------------5---------------|--0---------------0---------------|
D|----5---------------5---------------|--5---------------5---------------|
A|----0---------------0---------------|--0---------------0---------------|
E|------------------------------------|----------------------------------|


                                                                     mu
      F/C                                C
e|----5---------------5---------------|--0-------0----(0)-------0--------|
B|----6---------------6---------------|--5-------0h5--(5)-------0--------|
G|----5---------------5---------------|--5------------------5---5---(5)--|
D|------------------------------------|--5-------------------------------|
A|----0---------------0---------------|--0-------------------------------|
E|------------------------------------|----------------------------------|



      C                              G/C
e|---0----(0)---------0-----------|--0---------------0---------------|
B|---0h5--(5)------------5--------|--0---------------0---------------|
G|---------5----------------5-----|--4---------------4---------------|
D|-----------------------------5--|--5---------------5---------------|
A|--------------------------------|--0---------------0---------------|
E|--------------------------------|-(0)-------------(0)--------------|


                                                                 mu   mu
      Gm7/C                              Bbmaj7/C
e|----0---------------0---------------|--5------5-----------5-------------|
B|----6---------------6---------------|--6------6-----------6---(6)-------|
G|----0---------------0---------------|--7------7-----------7--------(7)--|
D|----6---------------5---------------|--8------8------8---(8)------------|
A|----0---------------0---------------|--0--------------------------------|
E|---(6)-------------(6)--------------|-----------------------------------|



      C                                  Gm7/C
e|----0---------------0---------------|--0---------------0---------------|
B|----5---------------5---------------|--6---------------6---------------|
G|----5---------------5---------------|--0---------------0---------------|
D|----5---------------5---------------|--5---------------5---------------|
A|----0---------------0---------------|--0---------------0---------------|
E|------------------------------------|----------------------------------|


                                                                     mu
      F/C                                C
e|----5---------------5---------------|--0-------0----(0)-------0--------|
B|----6---------------6---------------|--5-------0h5--(5)-------0--------|
G|----5---------------5---------------|--5------------------5---5---(5)--|
D|------------------------------------|--5-------------------------------|
A|----0---------------0---------------|--0-------------------------------|
E|------------------------------------|----------------------------------|



      C                              G/C
e|---0----(0)---------0-----------|--0---------------0---------------|
B|---0h5--(5)------------5--------|--0---------------0---------------|
G|---------5----------------5-----|--4---------------4---------------|
D|-----------------------------5--|--5---------------5---------------|
A|--------------------------------|--0---------------0---------------|
E|--------------------------------|-(0)-------------(0)--------------|


                                                                 mu   mu
      Gm7/C                              Bbmaj7/C
e|----0---------------0---------------|--5------5-----------5-------------|
B|----6---------------6---------------|--6------6-----------6---(6)-------|
G|----0---------------0---------------|--7------7-----------7--------(7)--|
D|----6---------------5---------------|--8------8------8---(8)------------|
A|----0---------------0---------------|--0--------------------------------|
E|---(6)-------------(6)--------------|-----------------------------------|

  Chorus

      F              F/E                 F/D             F/G
e|----5---------------5---------------|--5---------------5---------------|
B|----6---------------6---------------|--6---------------6---------------|
G|----5-------5-------5---------------|--5---------------5---------------|
D|----0-------------------------------|----------------------------------|
A|--------------------7---------------|--5-------------------------------|
E|------------------------------------|------------------0---------------|


                                   mu
      C     
e|------------0--(0)---------0---------|--0--(0)-------0--(0)------|
B|----5-------0--h5----------0---------|--0--h5--------0--h5-------|
G|----5-------5--(5)----5--------------|--5--(5)-------5--(5)------|
D|----5--------------------------------|---------------------------|
A|----0---------------------------(0)--|--0------------------------|
E|-------------------------------------|---------------------------|



      F              F/E                 F/D             F/G
e|----5---------------5---------------|--5---------------5---------------|
B|----6---------------6---------------|--6---------------6---------------|
G|----5-------5-------5---------------|--5---------------5---------------|
D|----0-------------------------------|----------------------------------|
A|--------------------7---------------|--5-------------------------------|
E|------------------------------------|------------------0---------------|


                                   mu
      C     
e|------------0--(0)---------0---------|--0--(0)-------0--(0)------|
B|----5-------0--h5----------0---------|--0--h5--------0--h5-------|
G|----5-------5--(5)----5--------------|--5--(5)-------5--(5)------|
D|----5--------------------------------|---------------------------|
A|----0---------------------------(0)--|--0------------------------|
E|-------------------------------------|---------------------------|



      F              F/E                 F/D             F/G
e|----5---------------5---------------|--5---------------5---------------|
B|----6---------------6---------------|--6---------------6---------------|
G|----5-------5-------5---------------|--5---------------5---------------|
D|----0-------------------------------|----------------------------------|
A|--------------------7---------------|--5-------------------------------|
E|------------------------------------|------------------0---------------|


                                   mu
      C     
e|------------0--(0)---------0---------|--0--(0)-------0--(0)------|
B|----5-------0--h5----------0---------|--0--h5--------0--h5-------|
G|----5-------5--(5)----5--------------|--5--(5)-------5--(5)------|
D|----5--------------------------------|---------------------------|
A|----0---------------------------(0)--|--0------------------------|
E|-------------------------------------|---------------------------|



      Badd9           Fadd9/A            Gsus4           Gm7
e|--------------------0---------------|----------------------------------|
B|----0---------------6---------------|----------------------------------|
G|----5---------------5---------------|--5---------------0---------------|
D|----0---------------0---------------|--5-------5-------0---------------|
A|------------------------------------|--5---------------5---------------|
E|----6---------------5---------------|--0---------------0---------------|

  Outro

      Gm/C
e|----0------0----0----0----0----0----0--|-(0)---0----0----0----0----0----0----0--|
B|----0------0----0----0----0----0----0--|-(0)---0----0----0----0----0----0----0--|
G|----0------0----0----0----0----0----0--|-(0)---0----0----0----0----0----0----0--|
D|----5------5----5----5----5----5----5--|-(5)---5----5----5----5----5----5----0--|
A|----0------0----0----0----0----0----0--|-(0)---0----0----0----0----0----0----0--|
E|---------------------------------------|----------------------------------------|



      Csus2
e|----0------0----0----0----0----0----0--|--0----0----0----0----0----0----0---0--|
B|----0------0----0----0----0----0----0--|--0----0----0----0----0----0----0---0--|
G|----5------5----5----5----5----5----5--|--5----5----5----5----5----5----5---5--|
D|----5------5----5----5----5----5----5--|--5----5----5----5----5----5----5---5--|
A|----0------0----0----0----0----0----0--|--0----0----0----0----0----0----0---0--|
E|---------------------------------------|---------------------------------------|



      Gm/C
e|----0------0----0----0----0----0----0--|-(0)---0----0----0----0----0----0----0--|
B|----0------0----0----0----0----0----0--|-(0)---0----0----0----0----0----0----0--|
G|----0------0----0----0----0----0----0--|-(0)---0----0----0----0----0----0----0--|
D|----5------5----5----5----5----5----5--|-(5)---5----5----5----5----5----5----0--|
A|----0------0----0----0----0----0----0--|-(0)---0----0----0----0----0----0----0--|
E|---------------------------------------|----------------------------------------|



      Csus2
e|----0------0----0----0----0----0----0--|--0----0----0----0----0----0----0---0--|
B|----0------0----0----0----0----0----0--|--0----0----0----0----0----0----0---0--|
G|----5------5----5----5----5----5----5--|--5----5----5----5----5----5----5---5--|
D|----5------5----5----5----5----5----5--|--5----5----5----5----5----5----5---5--|
A|----0------0----0----0----0----0----0--|--0----0----0----0----0----0----0---0--|
E|---------------------------------------|---------------------------------------|



      Gm/C
e|----0------0----0----0----0----0----0--|-(0)---0----0----0----0----0----0----0--|
B|----0------0----0----0----0----0----0--|-(0)---0----0----0----0----0----0----0--|
G|----0------0----0----0----0----0----0--|-(0)---0----0----0----0----0----0----0--|
D|----5------5----5----5----5----5----5--|-(5)---5----5----5----5----5----5----0--|
A|----0------0----0----0----0----0----0--|-(0)---0----0----0----0----0----0----0--|
E|---------------------------------------|----------------------------------------|



      Csus2
e|----0------0----0----0----0----0----0--|--0----0----0----0----0----0----0---0--|
B|----0------0----0----0----0----0----0--|--0----0----0----0----0----0----0---0--|
G|----5------5----5----5----5----5----5--|--5----5----5----5----5----5----5---5--|
D|----5------5----5----5----5----5----5--|--5----5----5----5----5----5----5---5--|
A|----0------0----0----0----0----0----0--|--0----0----0----0----0----0----0---0--|
E|---------------------------------------|---------------------------------------|



      Gm/C
e|----0------0----0----0----0----0----0--|-(0)---0----0----0----0----0----0----0--|
B|----0------0----0----0----0----0----0--|-(0)---0----0----0----0----0----0----0--|
G|----0------0----0----0----0----0----0--|-(0)---0----0----0----0----0----0----0--|
D|----5------5----5----5----5----5----5--|-(5)---5----5----5----5----5----5----0--|
A|----0------0----0----0----0----0----0--|-(0)---0----0----0----0----0----0----0--|
E|---------------------------------------|----------------------------------------|



      Csus2
e|----0------0----0----0----0----0----0--|--0----0----0----0----0----0----0---0--|
B|----0------0----0----0----0----0----0--|--0----0----0----0----0----0----0---0--|
G|----5------5----5----5----5----5----5--|--5----5----5----5----5----5----5---5--|
D|----5------5----5----5----5----5----5--|--5----5----5----5----5----5----5---5--|
A|----0------0----0----0----0----0----0--|--0----0----0----0----0----0----0---0--|
E|---------------------------------------|---------------------------------------|




Intro

| C                | Gm7              | F          C     |    Csus4  Csus2  |

| C                | G                | Bbmaj7           | Bbmaj7           |


Verse 1

C              Gm7
Just yesterday morning
            Fsus2         C        C
They let me know you were gone
G           Bb5
Susanne the plans they made
       F/Bb         Bb5
Put an end to you
C                 Gm7
I walked out this morning
      F               C        C
And I wrote down this song
             G
I just can't remember
       F/Bb
Who to send it to


Chorus

F    F/E  F/D      F/G       C        C
I've seen fire and I've seen rain
          F     F/E         F/D           F/G   C        C
I've seen sunny days that I thought would never end
          F      F/E          F/D       F/G    C        C
I've seen lonely times when I could not find a friend
      Badd9  Fadd9/A          Gsus4   Gm7
But I always thought that I'd see you again

| Gm/C             | Gm/C             | Csus2            | Csus2            |


Verse 2

          C                  Gm7
Won't you look down upon me, Jesus
              Fsus2          C        C
You've got to help me make a stand
G                  Bb5
You've just got to see me
        F/Bb         Bb5
Through another day
C         Gm7
My body's aching
       F          C        C
And my time is at hand
            G
And I won't make it
    F/Bb
Any other way 


Chorus

F        F/E  F/D      F/G       C        C
Oh, I've seen fire and I've seen rain
          F     F/E         F/D           F/G   C        C
I've seen sunny days that I thought would never end
          F      F/E          F/D       F/G    C        C
I've seen lonely times when I could not find a friend
      Badd9  Fadd9/A          Gsus4   Gm7
But I always thought that I'd see you again 

| Gm/C             | Gm/C             | Csus2            | Csus2            |


Bridge

     C
Been walking my mind
      Gm7/C
To an easy time
   F/C                     C
My back turned towards the sun
C                   G/C
Lord knows when the cold wind blows
      Gm7/C                  Bbmaj7/C
It'll turn your head around
              C
Well, there's hours of time
       Gm7/C
On the telephone line
   F/C                  C        C
To talk about things to come
                 G/C
Sweet dreams and flying machines
   Gm7/C         Bbmaj7/C
In pieces on the ground 


Chorus

F        F/E  F/D      F/G       C        C
Oh, I've seen fire and I've seen rain
          F     F/E         F/D           F/G   C        C
I've seen sunny days that I thought would never end
          F      F/E          F/D       F/G    C        C
I've seen lonely times when I could not find a friend
      Badd9  Fadd9/A          Gsus4    Gm7   Gm/C     Gm/C             Csus2     Csus2
But I always thought that I'd see you, baby, one more time again, now


Outro

            Gm/C             Gm/C         Csus2      Csus2
Thought I'd see you one more time again
               Gm/C                 Gm/C          Csus2        Csus2
There's just a few things coming my way this time around, now
            Gm/C                 Gm/C             Csus2      Csus2
Thought I'd see you, thought I'd see you fire and rain, now




Chords


C   Gm7   Gm7   F   C   G   Bbmaj7   Fsus2   Bb5   F/Bb   F/E   F/D   F/G

8    6     x    5   0   0     5        0      6     5      5     5     5
8    6     6    6   5   0     6        6      6     6      6     6     6
9    7     0    5   5   4     0        5      0     5      5     5     5
x    x     5    0   5   5     0        0      0     0      x     x     x
x    x     5    x   0   5     x        x      x     x      7     5     x
x    x     0    x   x   0     6        x      6     6      x     x     0


Bbadd9   Fadd9/A   Gsus4   Gm7   Gm/C   Csus2   Gm7/C   F/C   G/C   Bbmaj7/C

  x        0         0      0     0       0       0      5     0       5
  0        6         0      0     0       0       6      6     0       6
  5        5         5      0     0       5       0      5     4       7
  0        0         5      0     5       5       5      x     5       8
  x        x         5      5     0       0       0      0     0       0
  6        5         0      0     x       x       x      x     0       x



/    slide up
\    slide down
h    hammer-on
p    pull-off
mu   mute
co   cut off
~~   vibrato


=====================================================================  04 August 2011
Tap to rate this tab
# A B C D E F G H I J K L M N O P Q R S T U V W X Y Z