Song name
# A B C D E F G H I J K L M N O P Q R S T U V W X Y Z

Jamie Foxx - Fly Love chords

Highlighted       Show chord diagrams
-------------------------------------------------------------------------------
			     Fly Love - Jamie Foxx
-------------------------------------------------------------------------------
Tabbed by: bonix ozarraga
Email:falafoxcode@gmail.com

Intro: DMaj7 - Em - [F#m - F] - G

Stanzas: DMaj7 - Em - [F#m - F] - G

Chorus: G - Em
        G - Em - A7


**use this in F#m and F:

F#m:
e|------------------------------------------------------------------------------|
B|--0---------------------------------------------------------------------------|
G|--2---------------------------------------------------------------------------|
D|--2---------------------------------------------------------------------------|
A|--0---------------------------------------------------------------------------|
E|--2---------------------------------------------------------------------------|

F:
e|------------------------------------------------------------------------------|
B|------------------------------------------------------------------------------|
G|--1---------------------------------------------------------------------------|
D|--0---------------------------------------------------------------------------|
A|--0---------------------------------------------------------------------------|
E|--1---------------------------------------------------------------------------|
Tap to rate this tab
 
# A B C D E F G H I J K L M N O P Q R S T U V W X Y Z