Song name
# A B C D E F G H I J K L M N O P Q R S T U V W X Y Z

Jamiroquai - Stillness In Time chords

Highlighted       Show chord diagrams
-------------------------------------------------------------------------------
			     SONG NAME - Band Name
-------------------------------------------------------------------------------
Tabbed by: Stuart Lester
Email: stu7878@hotmail.co.uk

Tuning: Standard

Chords used:

     Cm7    F   Bbmaj7   Bb7   Ebmaj7  Abmaj7  Dbmaj7 F#maj7  Bmaj7   G

e|----3-----1------1------1------6-------4-------4-------2------2-----3---|
B|----4-----1------3------3------8-------4-------6-------2------4-----3---|
G|----3-----2------2------1------7-------5-------5-------3------3-----4---|
D|----5-----3------3------3------8-------5-------6-------3------4-----5---|
A|----3-----3------1------1------6-------6-------4-------4------2-----5---|
E|----3-----1------1------1------6-------4-------4-------2------2-----3---|

Verse:

Cm7 - F - Cm7 - F - Bbmaj7 - Bbmaj7 - Bb7 - Ebmaj7  x2

Bridge:

Abmaj7 - Dbmaj7 x2
 
F#maj7 - Bmaj7  x2

Chorus:

Bbmaj7 - Bb7 - Ebmaj7  x4

G - Cm7 - Dbmaj7 - Ebmaj7 x4 
Tap to rate this tab
# A B C D E F G H I J K L M N O P Q R S T U V W X Y Z