Song name
# A B C D E F G H I J K L M N O P Q R S T U V W X Y Z

Jan Antonin Losy - Gigue In C tab

Key Signature: C major
Tempo: 76 dotted halfs / min
Expression: mf
Publisher's note:
Pay attention to the bass notes, keeping them ringing until the
end of each measure. Observe the ties in measures 25-32 - do not
take your 1st finger away from the 2nd string until the end of
the 32nd measure. You can change the tempo if you have the
technical ability.
==================================================================
3/4
==================================================================
                  SYMBOLS
|    quarter note           /   slide
|.   dotted quarter note   ==   tie
H    half note             (1)  ghost note
H.   dotted half note       }   quarter rest

==================================================================

RHF---i---||--m------i--m----|--i--...
                     --                --                 --
      |       |.     |  |       |.     |  |        |.     |  |    
  E---3---||--0--------------|---------0-------|-----------------|
  B-------||---------3--1----|--3---------3----|---1------3--1---|
  G-------||*----------------|-----------------|-----------------|
  D-------||*----------------|-----------------|-----------------|
  A-------||--3--------------|--2--------------|---0-------------|
  E-------||-----------------|-----------------|-----------------|
      }       H.                H.                 H.

LHF   4   ||           4  1  |  4              |   1      4      |
LHF       ||  3              |  2              |                 |

==================================================================
==================================================================

    RHF-----------------|--i------m--i----|--m------i--m----|
                --                --                --       
    4    |.     |  |       |.     |  |       |.     |  |     
      E-----------------|-----------------|-----------------|
      B--0--------------|---------0-------|-----------------|
      G---------2--0----|--2---------2----|--0------2--0----|
      D-----------------|--3--------------|--2--------------|
      A-----------------|-----------------|-----------------|
      E--3--------------|-----------------|-----------------|
         H.                H.                H.

    LHF         2       |  2              |         3       |
    LHF  3              |  3              |  2              |

==================================================================
==================================================================

                       ------------------ -----------
   RHF---i--...        |1.               ||2.      ...--i---|
                --     |                 || 
   7     |.     |  |   |  H     ,   |    ||  H          |
     E-----------------|------------3----||---------||--3---|
     B-----------------|-----------------||---------||------|
     G----------0------|----------------*||---------||*-----|
     D---3---------3---|--2-------------*||--2------||*-----|
     A---2-------------|--3--------------||--3------||------|
     E-----------------|-----------------||---------||------|
         H.               H.                 H          }

         4             |  2              ||             4   |
         2             |  3              ||                 |

==================================================================
==================================================================

    RHF--m------i--m----|--a------i--m----|--i--...
                --                --                --       
   11    |.     |  |       |.     |  |       |.     |  |     
      E--3---------3----|-/4---------4----|--5------7--8----|
      B---------1-------|---------3-------|-----------------|
      G-----------------|-----------------|-----------------|
      D-----------------|--2--------------|-----------------|
      A--3--------------|-----------------|--0--------------|
      E-----------------|-----------------|-----------------|
         H.                H.                H.

    LHF         1       |  4      2       |  1      3  4    |
    LHF  3              |  1              |                 |

==================================================================
==================================================================

    RHF--m---------i----|--m--...                 ...--a----|
                                  --
   14    H         |       |.     |  |       H         |     
      E-\7---------0----|--0--------------|------------5----|
      B-----------------|---------3--1----|--0--------------|
      G-----------------|-----------------|--1--------------|
      D-----------------|-----------------|--2--------------|
      A-----------------|--3--------------|-----------------|
      E--3--------------|-----------------|-----------------|
         H.                H.                H         }

    LHF  4              |         4       |  1         4    |
    LHF  1              |  3              |  2              |

==================================================================
==================================================================

    RHF--m------i-------|------------m----|--i--------------|
                --                                  --       
   17    |.     |  |       H    ,    |       |.     |  |     
      E---------5--4----|--5---------5----|--5------3--5----|
      B--0--------------|-----------------|-----------------|
      G-----------------|-----------------|-----------------|
      D-----------------|-----------------|-----------------|
      A-----------------|--0--------------|--0--------------|
      E--0--------------|-----------------|-----------------|
         H.                H         }       H.

    LHF         4       |            4    |  1      2       |
    LHF                 |                 |                 |

==================================================================
==================================================================

    RHF--m--...
                --                --                --       
   20    |.     |  |       |.     |  |       |.     |  |     
      E--2--------------|-----------------|-----------------|
      B---------5-\3----|--3------1--3----|--0--------------|
      G-----------------|-----------------|---------2--0----|
      D--0--------------|-----------------|-----------------|
      A-----------------|-----------------|-----------------|
      E-----------------|--2--------------|--3--------------|
         H.                H.                H.

    LHF  1     4        |  4      1       |         2       |
    LHF                 |  2              |  3              |

==================================================================
==================================================================

    RHF--...           ...-i------m--...
    RHF--...           ...-p--------------|--p--------------|
                --                --                --       
   23    |.     |  |       |.     |  |       |.     |  |     
      E------------0----|-----------------|-----------------|
      B--1------3-------|------------1======(1)-----1--0----|
      G-----------------|--2------0-------|--0--------------|
      D-----------------|--3--------------|-----------------|
      A--3--------------|-----------------|-----------------|
      E-----------------|-----------------|-----------------|
         H.                H.                H.

    LHF  1      4       |  2              |                 |
    LHF  3              |  3              |                 |

==================================================================
==================================================================

    RHF------------i----|--p------m--i----|--p------m--i----|
                                  --                --       
   26    H      ,  |       |.     |  |       |.     |  |     
      E-----------------|-----------------|-----------------|
      B--1---------1======(1)-----3--1======(1)-----3--1=====
      G-----------------|-----------------|-----------------|
      D-----------------|-----------------|-----------------|
      A--3--------------|--3--------------|--2--------------|
      E-----------------|-----------------|-----------------|
         H.                H.                H.

    LHF  1              |         4  1    |         4  1    |
    LHF  3              |  3              |  2              |

==================================================================
==================================================================

    RHF--p--...                          ...-p------m--i----|
                --                --                --       
   29    |.     |  |       |.     |  |       |.     |  |     
      E-----------------|-----------------|-----------------|
      B=(1)-----3--1======(1)-----3--1======(1)-----3--1=====
      G-----------------|-----------------|-----------------|
      D-----------------|-----------------|--2--------------|
      A--0--------------|-----------------|-----------------|
      E-----------------|--3--------------|-----------------|
         H.                H.                H.

    LHF         4       |         4  1    |         4       |
    LHF                 |  3              |  2              |

==================================================================
==================================================================

                                         --------- ---------------
                                         |1.      ||2.           |
   RHF--p--------------|--p------m--i----|--m-----||             |
               --                --      |        ||             |
  32    |.     |  |       |.     |  |    |  H     ||  H.         |
     E-----------------|-----------------|--------||------------||
     B=(1)-----3--1======(1)-----1--0----|--1-----||------------||
     G-----------------|--0--------------|-------*||--5---------||
     D--3--------------|-----------------|-------*||------------||
     A-----------------|-----------------|--3-----||--3---------||
     E-----------------|-----------------|--------||------------||
        H.                H.                H         H.

   LHF                 |                 |  1     ||            ||
   LHF                 |                 |  3     ||  1         ||
Tap to rate this tab
# A B C D E F G H I J K L M N O P Q R S T U V W X Y Z