Song name
# A B C D E F G H I J K L M N O P Q R S T U V W X Y Z

Jana Hunter - Regardless tab

-------------------------------------------------------------------------------
                             Regardless - Jana Hunter
-------------------------------------------------------------------------------
Tabbed by:Michiel Snoek
E-mail:Michiel.snoek@gmail.com

Tuning: eadgbe
                  A-C-F#-C      
e|---------------------------------------------------------------------------|
B|--2----------2------1---------1-------2----------2------1---------1--------|
G|--------2----------------0------------------2----------------0-------------|
D|-----2-----------------2-----------------4-----------------2---------------|
A|--0--------0--------3-------3---------4--------4--------3-------3----------|
E|---------------------------------------------------------------------------|
                  C-F#-F-C
e|---------------------------------------------------------------------------|
B|--1----------1------2-----------2------1------------1----1-----------1-----|
G|--------0------------------2------------------2----------------0-----------|
D|-----2------------------4------------------3----------------2--------------|
A|--3--------3--------4---------4--------3----------3------3--------3--------|
E|---------------------------------------------------------------------------|
Tap to rate this tab
# A B C D E F G H I J K L M N O P Q R S T U V W X Y Z