Song name
# A B C D E F G H I J K L M N O P Q R S T U V W X Y Z

Janel Drewis - In He Pines tab

Capo 3rd fret

                             Little girl, little girl, don't lie to me   Tell
e|----------------|----------------|---------------------|----------------|
B|---3-3----------|---3-3----------|---3-3---------------|---3-3----------|
G|0---0-0---------|0---0-0---------|0---0-0--------------|0---0-0---------|
D|---0------------|---0------------|---0-----------------|---0------------|
A|----------------|----------------|---------------------|----------------|
E|----------------|----------------|---------------------|----------------|

me  where did you sleep last night?
  e|-------------------|----------------------|---------------------|
  B|------3-3----------|---------3-3----------|---3-3---------------|
  G|0------0-0---------|------0---0-0---------|0---0-0--------------|
  D|------0------------|---------0------------|---0-----------------|
  A|-------------------|----------------------|---------------------|
  E|-------------------|----------------------|---------------------|

In the pines,In the pines, Where the sun never shines
       e|------------------|------------------------|
       B|---3---3----------|----------1----1--------|
       G|0----0--0---------|---------------0-0---3--|
       D|---0--------------|------------------------|
       A|------------------|------------------------|
       E|------------------|------------------------|

We'll shiver the whole night through.
   e|---------------|-----------------|-------------------|----------------|
   B|-----3-------1-|------------3-3--|--3-3--------------|---3-3----------|
   G|---------------|----3-----0--0-0-|0--0-0-------------|0---0-0---------|
   D|---------------|------------0----|--0----------------|---0------------|
   A|---------------|-----------------|-------------------|----------------|
   E|---------------|-----------------|-------------------|----------------|

And so goes on.

By ear.
Iara Linares
Tap to rate this tab
 
# A B C D E F G H I J K L M N O P Q R S T U V W X Y Z