Song name
# A B C D E F G H I J K L M N O P Q R S T U V W X Y Z

Janes Addiction - Superhero tab

The Entourage theme song

Intro/Verse:

E  E  E  S E  S  E  S S  E
-------------------------------|
-------------------------------|
-------------------------------|
10-10-8--8-10-10-10-8-10-8-----|
8--8--6--6-8--8--8--6-8--6-----|
-------------------------------|


Chorus:

E  E  E  E  E  E  E  E   E  E  E  E  E  E  E  E
------------------------|------------------------|
------------------------|------------------------|
------------10-10-10-10-|------------------------|
6--6--6--6--10-10-10-10-|8--8--8--8--8--8--8--8--|
6--6--6--6--8--8--8--8--|8--8--8--8--8--8--8--8--|
4--4--4--4--------------|6--6--6--6--6--6--6--6--|

E  E  E  E  E  E  E  E   E  E  E  E  E  E  E  E
------------------------|------------------------|
------------------------|------------------------|
------------------------|------------------------|
6--6--6--6--3--3--3--3--|8--8--8--8--8--8--8--8--|
6--6--6--6--3--3--3--3--|8--8--8--8--8--8--8--8--|
4--4--4--4--1--1--1--1--|6--6--6--6--6--6--6--6--|

Solos are in F Minor

Can't quite get the bridge

Tap to rate this tab
# A B C D E F G H I J K L M N O P Q R S T U V W X Y Z