Song name
# A B C D E F G H I J K L M N O P Q R S T U V W X Y Z

Janes Addiction - Thank You Boys tab

From hammer@athena.mit.edu (Douglas A Hamrin)
Subject: TAB: "Thank you boys"
Date: 1 Apr 1994 16:12:04 GMT
Organization: Massachusetts Institute of Technology

This file is wider than most screens.  Either stretch out your 
screen or print it in landscape mode.


Here's the janes tab i finally put it in
I hope you enjoy it


Use full bar chords
Its basicly these chords
 


note:  It's easier to play if you finger pick it!!!


-----------------------"THANK YOU BOYS"-------------------------------
-----------------------Jane's Addiction-------------------------------


|------------|--------------|-----------|------------|----------|------------|------------|
|----5---5---|--5---5---5---|---6--6-6--|-3--2s-3----|---6--6-6-|--3--2s-3---|-5---5-5--5-|
|----4---4---|--3---3---3---|---5--5-5--|-4--3s-4----|---5--5-5-|--4--3s-4---|-4---4-4--4-|
|----5---5---|--5---5---5---|---7--7-7--|-3--2s-3----|---7--7-7-|--3--2s-3---|-5---5-5--5-|
|-3----3---4-|----4---4---4s|-5--5------|---------4s-|-5---5----|------------|---3------3-|
|------------|--------------|-----------|-3--2s-3----|----------|--3--2s-3---|------------|

|------------|--------------|------8-5--|------------|----------|------------|------------|
|----5---5---|--5---5---5---|---6--6-6--|-3--2s-3----|---6--6-6-|--3--2s-3---|-5---5-5--5-|
|----4---4---|--3---3---3---|---5--5-5--|-4--3s-4----|---5--5-5-|--4--3s-4---|-4---4-4--4-|
|----5---5---|--5---5---5---|---7-------|-3--2s-3----|---7--7-7-|--3--2s-3---|-5---5-5--5-|
|-3----3---4-|----4---4---4s|-5--5------|---------4s-|-5---5----|------------|---3------3-|
|------------|--------------|-----------|-3--2s-3----|----------|--3--2s-3---|------------|

|----------|----------|--7---5---|----------|----------|----------|--7---5---|--5---3---|
|--8---5---|--6---3---|--8---5---|--6---3---|--8---5---|--6---3---|--8---5---|--6---3---|
|--7---6---|--5---4---|--7---6---|--5---4---|--7---6---|--5---4---|--7---6---|--5---4---|
|--9---5---|--7---3---|----------|--7---3---|--9---5---|--7---3---|----------|----------|
|--7-------|--5-------|--7-------|--5-------|--7-------|--5-------|--7-------|--5-------|
|------5---|------3---|------5---|------3---|------5---|------3---|------5---|------3---| 

					



life sux

Dug  -   meow meow
Tap to rate this tab
# A B C D E F G H I J K L M N O P Q R S T U V W X Y Z