Song name
# A B C D E F G H I J K L M N O P Q R S T U V W X Y Z

Janiva Magness - Bad Blood tab

Artist: Janiva Magness
Song: Bad Blood


Artist : Janiva Magness
Song : Bad Blood

Tabbed By : Pete Maginis

Standard Tuning : E A D G B E

Begin and Verse

-|-----5-------------------------------------------------------|
-|-------------------------------------------------------------|
-|-------5h6p5-------------------------------------------------|
-|-----------------5-5-7---------------------------------------|
-|--------------7----------------------------------------------|
-|--5----------------------------------------------------------|

Chorus
    C#5    F#7  E7    D   E
-|-------------------------------------------------------------|
-|--6------7----5-----7---9------------------------------------|
-|--6------6----4-----7---9------------------------------------|
-|--6------4----2-----7---9------------------------------------|
-|--4------4----2-----5---7------------------------------------|
-|-------------------------------------------------------------|

Lead Break
                                             E
-|--------------------------------------------------------------|
-|-------------------------------------------0------------------|
-|-------------------------------------------1------------------|
-|-------5----3---3-5--(repeat 7 measures)---2------------------|
-|----------5---5----------------------------2------------------|
-|--2-3--------------------------------------0--3-4-------------|Back to Begin


Occasional Alternate Lick to Beginning

-|-----5-------------------------------------------------------|
-|-------------------------------------------------------------|
-|-------5h6p5-------------------------------------------------|
-|-----------------5----5-7------------------------------------|
-|--------------7----7-----------------------------------------|
-|--5----------------------------------------------------------|


Hope You Like This Funky Tab


Pete Maginis
(Not Real Name)

END

+--------------------------------------------------------------------------+
| This file is the author's own work and represents their interpretation   |
| of the song. You may only use this file for private study, scholarship,  |
| or research.                                                             |
+--------------------------------------------------------------------------+

Bad Blood_Janiva Mangness
Tap to rate this tab
# A B C D E F G H I J K L M N O P Q R S T U V W X Y Z