Guitaretab - guitar tabs
Song name
# A B C D E F G H I J K L M N O P Q R S T U V W X Y Z

Jars Of Clay - Trouble Is tab

Jars Of Clay-Trouble Is
D-A-D-F#-A-D tuning(open D)

I have been wanting to play this song for years, but there were
never any good tabs. After a Jars concert in PA, me and a couple
of friends were talking to Dan Haseltine, and we asked him about
the song. He told us that it was in open tuning. I went home,
figured it out and posted the tab.
                                                       ENJOY!

Intro-
                                  2x  2x      2x  2x  2x
----------------------------------0---0---0---0---0---0---0---|
----------------------------------0---0---0---0---0---0---0---|
----------------------------------3---3---3---3---3---3---3---|
--3-0-----3-0---------0-----------0---0---0---3---0---0---0---|
----------------3-3---------------0---3---0---0---0---3---0---|
--------------------------3--0----0---0---0---0---0---0---0---|

          2x  2x      2x  2x  2x
----------0---0---0---0---0---0---0---|
----------0---0---0---0---0---0---0---|
----------3---3---3---3---3---3---3---|
----------0---0---0---3---0---0---0---|
----------0---3---0---0---0---3---0---|
--3--0----0---0---0---0---0---0---0---|
[ Tab from: http://www.guitaretab.com/j/jars-of-clay/178389.html ]
Verse-

Play the intro 4x then....

Jesus     told me         so.
   4x     8x               1x
---------------------------O--------|
---------------------------R--------|
---4-----------------------T--------|
---3-----------------------N--------|
---1-----------------------I--------|
----------5-------------------------|

still i'm not so shure...

--------------------------------|
--------------------------------|
--------------------------------|
---8--7--5--3--0----------------|
---8--7--5--3--0----------------|
---8--7--5--3--0----------------|

play the last verse over.

chorus-


----------------------|-----------------------------------|
----------------------|-----------------------------------|
---4--------------8---|---4-------------------------------|
---3----3----7----7---|---3---3---------------------------|
---1----3----7----5---|---1---3---------------------------|
--------3----7--------|-------3--8--7--5--3--0------------|


I left out alot but its just the intro being repeated.
Figure it out, and have fun.


 2003 Essential Records, a division of Brentwood Music, Inc.

Tabbed by Caleb Porzio.
Related for Trouble Is tab