Guitaretab - guitar tabs
Song name
# A B C D E F G H I J K L M N O P Q R S T U V W X Y Z

Jars Of Clay - Redemption tab

The tuning on this tab is pretty unusual, but it makes it a whole lot easier to 
play with an open ring. Enjoy.


Tuning (top to bottom): D, A, D, A, D, E


[ Tab from: http://www.guitaretab.com/j/jars-of-clay/337066.html ]
/-------------------------------------------------------------0-------------------/
/----------------0--------------0-------------------0---------2-----0-------------/
/------------0---0-----------0--0----0----0---- 0--------0----------0----4----4---/
/----4---5--------------5------------0----2-4h----4-------------------------------/
/--2---2---2---2--------------------------------------------0----0-----0----0-----/
/---------------------5----5---5---5----0--------------0--------------------------/


/-------------------------------/
/----------------0--------------/
/------------0---0-----0--------/
/----4---5-------------4--------/
/--2---2---2---2----------------/
/----------------------5--------/
Related for Redemption tab
Redemption chords by Jars Of Clay