Song name
# A B C D E F G H I J K L M N O P Q R S T U V W X Y Z

Jason Collett - Gabrielle tab

"Gabrielle" by Jason Collett
tabbed by Andrew Bernard

standard tuning, capo on second fret
("0" equals open second fret with capo)

verse part
-------0--------------------------------------|
-0-2-4---4-2--2-x---2---x-2-0-0--0-x-0h2--2-0-|
--------------2-x---2---x-2--1---1-x-1--1---1-|
----------------x-------x--------2-x-2---2--2-|
--------------0-x---0-0-x----------x----------|
------------------0---------------------------|

-------0-----------------------------0-------|
-0-2-4---4-2--2-x---2---x-2-0-0--0-x---2-2-0-|
--------------2-x---2---x-2--1---1-x----1--1-|
----------------x-------x--------2-x-2-----2-|
--------------0-x---0-0-x----------x---------|
------------------0--------------------------|
these two lines switch back and forth


chorus part
----------------------------------------|
----------------------------------------|
--4-x-------6-x------8-x------6-x-------|
--6-x-------7-x------9-x------7-x-------|
--6-x-------7-x------9-x------7-x-------|
------4---------0--------7---------0----|



second guitar harmonies (played over verse part)
----------------------------------------|
--4-5-7-9-7-5-4-5----5-4----------------|
--4-6-8-9-8-6-4-6--------4--------------|
----------------------------------------|
----------------------------------------|
----------------------------------------|

---------------------5-4----------------|
--4-5-7-9-7-5-4-5--------5--------------|
--4-6-8-9-8-6-4-6-----------------------|
----------------------------------------|
----------------------------------------|
----------------------------------------|

----------------------------------------|
--4-5-7-9-7-5-4-5----5-4-0--5-----------|
--4-6-8-9-8-6-4-6----6-4-1--4-----------|
----------------------------------------|
----------------------------------------|
----------------------------------------|
Tap to rate this tab
# A B C D E F G H I J K L M N O P Q R S T U V W X Y Z