Song name
# A B C D E F G H I J K L M N O P Q R S T U V W X Y Z

Jason Gray - I Am New tab

Note: This is my first tab ever and I think its pretty awesome. Yay me =)

Tuning: [D-A-D-G-A-D]

Capo 7th Fret 

KEY:

 h   - hammer-on
 p   - pull-off
 /   - slide up
 \   - slide down
 x   - muted string


Each given note is just what you will be pressing. You are free to hit 
just the strings containing the notes, the strings around the ones 
with held notes, or all the strings at once. I like to start 
the song off with just the basic notes than go into playing all 
or almost all the strings.


Intro
|-------------------------------------------------------------|D
|-------------------------------------------------------------|A
|--0h2--2p0----2---2------------------------------------------|G
|--------------4---4\---2--0----------------------------------|D
|----------------------------2/---4---5-0---------------------|A
|----------------------------x----x---x-x--0------------------|D

|-------------------------------------------------------------|D
|-------------------------------------------------------------|A
|--0h2--2p0----2---2---------4/---6---7-----------------------|G
|--------------4---4\---2--0----------------------------------|D
|----------------------------2/---4---5-0---------------------|A
|----------------------------x----x---x-x--0------------------|D



(Pretty much the same notes the rest of the song except for during the Chorus and mini-solo)

Verse 1

|-------------------------------------------------------------|D
|-------------------------------------------------------------|A
|--0h2--2p0-----2---2-----------------------------------------|G
|---------------4---4\--2--0----------------------------------|D
|------------------------------2/----------4/---------5-------|A
|------------------------------x-----------x----------x-------|D

 Now I wont deny             The worst you could say about me



|-------------------------------------------------------------|D
|-------------------------------------------------------------|A
|--0h2--2p0----2---2---------4/6/7--4/6/7---4/6/7---4/6/7-----|G
|--------------4---4\---2--0----------------------------------|D
|----------------------------2/4/5--2/4/5---2/4/5---2/4/5-----|A
|----------------------------x-x-x--x-x-x---x-x-x---x-x-x-----|D
                                                                      
 But I'm not defined         By mistakes that I've made because       
                             God says of me                          
                       (Listen to the song for the octave progression here)

Chorus

|-------------------------------------------------------------|D
|-------------------------------------------------------------|A
|--2----------------------------------------------------------|G
|--------------------4----------------------------------------|D
|--------------------3-------------------------5\----2--------|A 
|----------------------------------------------5\----2--------|D (x2)

 I'm not who I was      I'm being remade        I am new
 I'm chosen and holy    And I'm dearly loved    I am new, I am new


Filler rift

|-------------------------------------------------------------|D
|-------------------------------------------------------------|A
|--0h2--2p0----2---2---------4/---6---7-----------------------|G
|--------------4---4\---2--0----------------------------------|D
|----------------------------2/---4---5-0---------------------|A
|----------------------------x----x---x-x--0------------------|D




Verse 2

|-------------------------------------------------------------|D
|-------------------------------------------------------------|A
|--0h2--2p0------2---2----------------------------------------|G
|----------------4---4\--2--0---------------------------------|D
|------------------------------2/----------4/---------5-------|A
|------------------------------x-----------x----------x-------|D

 Who I thought I was          And who I thought I had to be



|-------------------------------------------------------------|D
|-------------------------------------------------------------|A
|--0h2--2p0----2---2----------4/6/7--4/6/7---4/6/7---4/6/7----|G
|--------------4---4\---2--0----------------------------------|D
|-----------------------------2/4/5--2/4/5---2/4/5---2/4/5----|A
|-----------------------------x-x-x--x-x-x---x-x-x---x-x-x----|D

 I had to give them both up   Because neither were willing
                              to ever believe
                            (Same octave progression as first verse)


 Chorus 

|-------------------------------------------------------------|D
|-------------------------------------------------------------|A
|--2----------------------------------------------------------|G
|--------------------4----------------------------------------|D
|--------------------3-------------------------5\----2--------|A 
|----------------------------------------------5\----2--------|D (x2)



 I'm not who I was      I'm being remade        I am new
 I'm chosen and holy    And I'm dearly loved    I am new, I am new



 Bridge

|-------------------------------------------------------------|D
|-------------------------------------------------------------|A
|-------------------------------------------------------------|G
|-------------------------------------------------------------|D
|---5/---------------------2----------------------------------|A
|---5/---------------------2----------------------------------|D

 Too long have I lived in the shadows of shame


|-------------------------------------------------------------|D
|-------------------------------------------------------------|A
|--2----------------------------------------------------------|G
|--------------------------4----------------------------------|D
|--------------------------3----------------------------------|A
|-------------------------------------------------------------|D

 Believin that there was no way I could change


|-------------------------------------------------------------|D
|-------------------------------------------------------------|A
|-------------------------------------------------------------|G
|-------------------------------------------------------------|D
|---5---------2----------5------------------------------------|A
|---5---------2----------5------------------------------------|D

 But the one who is making, everything new


|-------------------------------------------------------------|D
|-------------------------------------------------------------|A
|-------------------------------------------------------------|G
|-------------------------------------------------------------|D
|--5\4\2--------------------5\4\2-----------------------------|A
|--5\4\2--------------------5\4\2-----------------------------|D

 Doesn't see me the way that I do
 He doesn't see me the way that I do....


 Solo [Very short but my favorite part =)]
 Note: It can be played all open or with the low D string muted

|-------------------------------------------------------------|D
|-2/4\--2--2---2/---4/----5/----7-----------------------------|A
|-------------------------------------------------------------|G
|-2/4\--2-----------------------------------------------------|D
|--------------2/---4/----5/----7-----------------------------|A
|-------------------------------------------------------------|D



 Chorus

|-------------------------------------------------------------|D
|-------------------------------------------------------------|A
|--2----------------------------------------------------------|G
|--------------------4----------------------------------------|D
|--------------------3-------------------------5\----2--------|A 
|----------------------------------------------5\----2--------|D (x2)

 I'm not who I was      I'm being remade        I am new
 I'm chosen and holy    And I'm dearly loved    I am new, I am new





|-------------------------------------------------------------|D
|-------------------------------------------------------------|A
|--2----------------------------------------------------------|G
|--------------------4----------------------------------------|D
|--------------------3-------------------------5\----2--------|A 
|----------------------------------------------5\----2--------|D (x2)

 I'm not who I was      I'm being remade        I am new
 Dead to the old man    I'm coming alive        I am new, I am new



|-------------------------------------------------------------|D
|-------------------------------------------------------------|A
|--0h2--2p0----2---2------------------------------------------|G
|--------------4---4\---2--0----------------------------------|D
|----------------------------2/---4---5-0---------------------|A
|----------------------------x----x---x-x--0------------------|D

 Newwwwwwwwwwwwwwwwwwwwwwwwwwwwwwwwwwwwww!

|-------------------------------------------------------------|D
|-------------------------------------------------------------|A
|--0h2--2p0----2---2------------------------------------------|G
|--------------4---4\---2--0----------------------------------|D
|----------------------------2/---4---5-0---------------------|A
|----------------------------x----x---x-x--0------------------|D

 I am... newwwwwwwwwwwwwwwwwwwwwwwwwwwwwwwwwwwwwww!



 Verse 3:

|-------------------------------------------------------------|D
|-------------------------------------------------------------|A
|--2p0---2p0--------------------------------------------------|G
|-----------------------------4p0--4p0------------------------|D
|-----------------------------3-3--3-3------------------------|A
|-------------------------------------------------------------|D 

 Forgiven, Beloved,          Made in the Image of
  Hidden in Christ           The Giver of life



|-------------------------------------------------------------|D
|-------------------------------------------------------------|A
|--2p0---2p0--------------------------------------------------|G
|-----------------------------4p0--4p0------------------------|D
|-----------------------------3-3--3-3------------------------|A
|-------------------------------------------------------------|D

 Righteous and Holy,         Accepted and Worthy,
  Reborn and Remade           This is our new name


 (Repeat both)


 Outro:

|-------------------------------------------------------------|D
|-------------------------------------------------------------|A
|--0h2--2p0----2---2---------------4/---6/---7----------0h2---|G
|--------------4---4\---2--0----------------------------------|D
|----------------------------------2/---4/---5---0------------|A
|----------------------------------x----x----x-----0----------|D

            This is who we are now....


Thanks for using my tab =). This is an awesome song and was really fun 
to learn. If you have any comments/questions/suggestions you can 
e-mail me at Sylesyl@gmail.com. God Bless!
Tap to rate this tab
 
# A B C D E F G H I J K L M N O P Q R S T U V W X Y Z