Song name
# A B C D E F G H I J K L M N O P Q R S T U V W X Y Z

Jason Mraz - Halfway Home tab

Halfway Home
Standard Tuning
Capo on the 2nd Fret


Intro/Verse:
e----------------------------------------------------------------|
B-------------------------------------------------1-0------------|
G--------------0------------2-------------0-----------2-0--------|
D--------0---0---0----1---1---1-----4---4---4-------------2-0----|
A----------2-------2----0-------0-----2-------2-3----------------|
E--0-2-3-------------2------------0------------------------------|

e----------------------------------------------------------------|
B--------------------------------------------3-------------------|
G----------0------------2-------------0------0-------------------|
D----0---0---0----1---1---1-----4---4---4----4-------------------|
A------2-------2----0-------0-----2-------2--2-------------------|
E--3-------------2------------0----------------------------------|

Chorus:
e-------------------------------------------------------------------------|
B-------------------------------------------------------------------------|
G---0---0---0---------0-------------2-------------0-------------0---------|
D-----2---2-----0---0---0-----1---1---1-----4---4---4-----4---4---4-------|
A--3--------------2-------2-----0-------0-----2-------2-----2-------2-----|
E-------------3-------------2-------------0-------------0-------------0---|

"Halfwaaaaaaaaay.."
e-------------------------------------------------------------------------|
B-------------------------------------------------------------------------|
G----------0-------------0------------------------------------------------|
D----4---4---4-----2---2---2-------to chorus------------------------------|
A------2-------2-----2-------2--------------------------------------------|
E--0-------------0--------------------------------------------------------|

End:
e-----------------0---------|
B-----------------3---------|
G----------0------0---------|
D----4---4---4----4---------|
A------2-------2--2---------|
E--0--------------0---------|
Tap to rate this tab
# A B C D E F G H I J K L M N O P Q R S T U V W X Y Z