Song name
# A B C D E F G H I J K L M N O P Q R S T U V W X Y Z

Javier - Lovin You tab

---------------------------------------------------------------------------
			     Lovin' You - Javier
---------------------------------------------------------------------------
Tabbed by: Earl John D. Mission
Email: ejski_00@yahoo.com

Tuning: Standard

Intro:
e|--------3----------------3--------------------------------1----------|
B|--0---0---0---0-----0---0---0---0-----3---0h3-------1---1------------|
G|----0-------0-----0---0-------0-----0---0-------------2--------------|
D|---------------------------------------------------------------------|
A|----------------2-----------------3----------3h2---------------------|
E|--3-----------------------------------------------1---------1-2-3----|

e|---------3----------------3------------0----------|
B|---0---0---0---0-----0---0---0---0---3---3--1-----|
G|-----0-------0-----0---0-------0-----0------0-----|
D|--------------------------------------------------|
A|-----------------2-------------------3------0-----|
E|--3-----------------------------------------------|

Verse + Chorus
e|--------3----------------3--------------------------------1----------|
B|--0---0---0---0-----0---0---0---0-----3---0h3-------1---1------------|
G|----0-------0-----0---0-------0-----0---0-------------2--------------|
D|---------------------------------------------------------------------|
A|----------------2-----------------3----------3h2---------------------|
E|--3-----------------------------------------------1---------1-2-3----|

(I think this is how he play in the verse and chorus, but if it does have some part of 
intro, then play it as well!! :D)

Solo:
e|--------------------------------------------------------------------|
B|------------------------------------------------------7------8h10-8-|
G|-------4~-----5-4-5-4-5-4-5/7--5h4h5-4-----------7h9-7----7h9-------|
D|----5h7--7-5-----5---5-----------------7-5-7-7/9-------7h9----------|
A|--5h7---------------------------------------------------------------|
E|--------------------------------------------------------------------|

e|------------------------------10-10-8-7-8-7----------------10h12-10-|
B|----8h10-8h10-10/12-11--8-8---------------10-8-10-8-10/12-----------|
G|-7h9----------------------------------------------------------------|
D|--------------------------------------------------------------------|
A|--------------------------------------------------------------------|
E|--------------------------------------------------------------------|

e|8h7-8h7--------------------7h8-10-8-7-8-7--10-8-7-8-7-10-8-7-8-7-|
B|--------10-8-8h10-8----8h10--------------10----------8-----------|
G|--------------------7--------------------------------------------|
D|-----------------------------------------------------------------|
A|-----------------------------------------------------------------|
E|-----------------------------------------------------------------|

e|-----7h8-7----------------|
B|8-10-------10-8--7-8p-----|
G|--------------------------|
D|--------------------------|
A|--------------------------|
E|--------------------------|

***There it goes, i hope this is almost a 100% correct tab because no one has posted it 
but uhh, if there is some adjustments, please feel free to comment... DO VOTE AS WELL, 
ill appreciate the hard work!! :D... peace ya'll***

| /  slide up
| | h  hammer-on
| p  pull-off
| ~  vibrato
| +  harmonic
| x  Mute note
============================================================================
Tap to rate this tab
 
# A B C D E F G H I J K L M N O P Q R S T U V W X Y Z