Song name
# A B C D E F G H I J K L M N O P Q R S T U V W X Y Z

Jay Chou - Dao Xiang tab

Song: Dao Xiang (稻香)
Artist: Jay Chou (周杰倫)
Album: Capricorn (魔傑座)

Tuning: Standard
Tabbed by: halosinfire@hotmail.com (If you found this tab helpful, send me an email!)

Notation:
h = hammer on
* = ghost note (played very softly)

(Play 1x)
e|------0-----|-------|-----0----|------0-|-----0-|-----0----|------0--------0---|
B|------0h2---|-----0-|-----0----|--------|-----0-|----------|------0---0----0---|
G|----2-----2-|-----1-|----------|------4-|---2---|-----2----|--------2---2------|
D|------------|---2---|---4---4*-|----6---|-------|---2---2*-|----2--------2---2-|
A|-0----------|-------|----------|--4-----|-2-----|----------|--0----------------|
E|------------|-0-----|-2--------|--------|-------|-0--------|-------------------|


(Play 7x)
e|------0-----|-------|-----0----|-----0----|-----0----|-----0----|-----0----------0---|
B|------0h2---|-----0-|-----0----|----------|-----3----|----------|-----0h2--2-----0---|
G|----2-----2-|-----1-|----------|-----4----|---2---2*-|-----2----|---2-----2--2-2-----|
D|------------|---2---|---4---4*-|---6---6*-|----------|-2-----2*-|-------------2----2-|
A|-0----------|-------|----------|-4--------|-2--------|----------|-0------------------|
E|------------|-0-----|-2--------|----------|----------|---0------|--------------------|


(Play 1x)	
e|------0-----|-------|-----0----|-----0----|------0----|-----0----|-------------|------|
B|------0h2---|-----0-|-----0----|----------|------3----|----------|-0h2---------|------|
G|----2-----2-|-----1-|----------|-----4----|----2---2*-|-----2----|-----2-------|-Rest-|
D|------------|---2---|---4---4*-|---6---6*-|-----------|-2-----2*-|-------2-2-2-|------|
A|-0----------|-------|----------|-4--------|--2--------|----------|-------------|------|
E|------------|-0-----|-2--------|----------|-----------|---0------|-------------|------|


(Play 8x)
e|------0-----|-------|-----0----|-----0----|-----0----|-----0----|-----0----------0---|
B|------0h2---|-----0-|-----0----|----------|-----3----|----------|-----0h2--2-----0---|
G|----2-----2-|-----1-|----------|-----4----|---2---2*-|-----2----|---2-----2--2-2-----|
D|------------|---2---|---4---4*-|---6---6*-|----------|-2-----2*-|-------------2----2-|
A|-0----------|-------|----------|-4--------|-2--------|----------|-0------------------|
E|------------|-0-----|-2--------|----------|----------|---0------|--------------------|


(Play 1x)
e|------0-----|-------|-----0----|-----0----|-----0----|-----0----|-----0------0----|
B|------0h2---|-----0-|-----0----|----------|-----3----|----------|-----0h2-0-------|
G|----2-----2-|-----1-|----------|-----4----|---2---2*-|-----2----|---2--------2----|
D|------------|---2---|---4---4*-|---6---6*-|----------|-2-----2*-|-----------------|
A|-0----------|-------|----------|-4--------|-2--------|----------|-0---------------|
E|------------|-0-----|-2--------|----------|----------|---0------|-----------------|



Tap to rate this tab
# A B C D E F G H I J K L M N O P Q R S T U V W X Y Z