Song name
# A B C D E F G H I J K L M N O P Q R S T U V W X Y Z

Jay Chou - Simple Love tab

Simple Love - Jay Chou - Solo (Vocal Part)

Transcribed by: Victor Xiong

So basically, this is a lead guitar part which does the vocals, and obviously, you will 
a second guitar to do a backing.
Click http://youtube.com/watch?v=700ATAncwFA for an example
If you know this song well, the rhythm should come quite easily.
So basically, the song goes in this progression:

Verse (x2)
Bridge (x1)
Chorus (x2)
BridgeII (x1)
Verse (x1)
Bridge I (x1)
Chorus (x2)
Bridge II (x1)
Chorus (x2) [with no backing]

Tabs:
Introduction:
e|------------------------------------------------|
B|---------------------------------3-3-1-x-1------|
G|------------------------------------------------| x8
D|------------------------------------------------|
A|------------------------------------------------|
E|------------------------------------------------|
Guitar emphasizes the last 4 notes of every chord in introduction.


Verse:
e|--------------------------------------------------|
B|-------1-1---1--------------------1-1---1---------|
G|---2-2-----2------------------0-2-----2-----------|
D|--------------------------------------------------|
A|--------------------------------------------------|
E|--------------------------------------------------|

e|--------------------------------------------------|
B|-------1-1---1-----1---1-3-3-1--------------------|
G|---2-2-----2---0h2---2----------------------------|
D|--------------------------------------------------|
A|--------------------------------------------------|
E|--------------------------------------------------|


Bridge:
e|--------------------------------------------------|
B|---1-1-1-1-1-0---0-1---1--------------------------|
G|---------------2-----0----------------------------|
D|--------------------------------------------------|
A|--------------------------------------------------|
E|--------------------------------------------------|

e|--------------------------------------------------|
B|---1-1-1-1-1-0------------------------------------|
G|---------------2-0-0---0--------------------------|
D|---------------------2----------------------------|
A|--------------------------------------------------|
E|--------------------------------------------------|

e|-----------------------0-1-1-1-0-0---3-1-1-1-0-----|
B|---1-1-1---1-0---0-1-3-------------3-----------3-1-|
G|-2-------0-----2-----------------------------------|
D|---------------------------------------------------|
A|---------------------------------------------------|
E|---------------------------------------------------|

Chorus:
e|---------0---0-1-3-3-3-1-0------------------------|
B|-----1-3---3---------------3----------------------|
G|---0----------------------------------------------|
D|--------------------------------------------------|
A|--------------------------------------------------|
E|--------------------------------------------------|

e|---------0---0-1-3-3-3-3/5-3-0--------------------|
B|-----1-3---3--------------------------------------|
G|---0----------------------------------------------|
D|--------------------------------------------------|
A|--------------------------------------------------|
E|--------------------------------------------------|

e|-------------0-0---3------------------------------|
B|---1-1---3-3-----1---1---1-0-1--------------------|
G|-------2---------------0--------------------------|
D|--------------------------------------------------|
A|--------------------------------------------------|
E|--------------------------------------------------|

e|-----------0-0-1-1-1-0----------------------------|
B|---1---3-3-------------3-1-1----------------------|
G|-----2--------------------------------------------|
D|--------------------------------------------------|
A|--------------------------------------------------|
E|--------------------------------------------------|

Bridge II:
e|--------------------------------------------------|
B|--1~~~--1-0-------0-1-----------------------------|
G|------------2p0-2---------------------------------|
D|--------------------------------------------------|
A|--------------------------------------------------|
E|--------------------------------------------------|

e|------0-0-------------0---------------------------|
B|--1-3-1-1-3-1-1-0-1-3-1---------------------------|
G|----------4-2-2-----------------------------------|
D|--------------------------------------------------|
A|--------------------------------------------------|
E|--------------------------------------------------|

Outro:                                   C
e|----------------3-------1--------------0-------------|
B|--1-0-1-3-1-0-1---1-0-1---1-0-1--x2----1-------------|
G|---------------------------------------0-------------|
D|---------------------------------------2-------------|
A|---------------------------------------3-------------|
E|---------------------------------------x-------------|
Tap to rate this tab
 
# A B C D E F G H I J K L M N O P Q R S T U V W X Y Z