Song name
# A B C D E F G H I J K L M N O P Q R S T U V W X Y Z

Jaya The Cat - Hello Hangover tab

Intro
E-----------------------------------------------------------------------|
B-----------------------------------------------------------------------|
G-----------------------------------------------------------------------|
D-------------------2-0-------------2-2-2-2-2-2-0------------2-0--------|
A-0-0---0-----0-2-3-----2---0---------------------0----0-2-3-----2--0---|
E-----3-------------------3----------------------------------------3----|


Verses

   Am           Es           G            Dm
A--5--5--5--5---1--1--1--1---3--3--3--3---5--5--5--5-|
B--5--5--5--5---1--1--1--1---3--3--3--3---6--6--6--6-|
G--5--5--5--5---2--2--2--2---4--4--4--4---7--7--7--7-|
D--7--7--7--7---3--3--3--3---5--5--5--5---7--7--7--7-|
A--7--7--7--7---3--3--3--3---5--5--5--5---5--5--5--5-|
E--5--5--5--5---1--1--1--1---3--3--3--3---5--5--5--5-|

Couplet

same chords in the same order but strummed once.
Tap to rate this tab
# A B C D E F G H I J K L M N O P Q R S T U V W X Y Z