Song name
# A B C D E F G H I J K L M N O P Q R S T U V W X Y Z

Jayson And Oliver - Closer tab

This song is basically just made up of only 3 chords and 1 lead guitar part
that plays a couple times in the song. I realize that it is extremely easy
to figure this song out.. but since you're here reading this, obviously you
haven't done it yourself. So here it is.

Here are the chords that play throughout the whole song.

It starts off with a B chord, then it goes to a C#m, then an E and then back
to B.

        Rest = Mute sound

   1     &     2     &     3     &     4     &     
|--------2--2--------2--2--------2--2--------2--2--|
|--R-----4--4--R-----4--4--R-----4--4--R-----4--4--|
|--e-----4--4--e-----4--4--e-----4--4--e-----4--4--|
|--s-----4--4--s-----4--4--s-----4--4--s-----4--4--|
|--t-----2--2--t-----2--2--t-----2--2--t-----2--2--|
|--------------------------------------------------|


   1     &     2     &     3     &     4     &     
|--------4--4--------4--4--------4--4--------4--4--|
|--R-----5--5--R-----5--5--R-----5--5--R-----5--5--|
|--e-----6--6--e-----6--6--e-----6--6--e-----6--6--|
|--s-----6--6--s-----6--6--s-----6--6--s-----6--6--|
|--t-----4--4--t-----4--4--t-----4--4--t-----4--4--|
|--------------------------------------------------|


   1     &     2     &     3     &     4     &     
|--------7--7--------7--7--------7--7--------7--7--|
|--R-----9--9--R-----9--9--R-----9--9--R-----9--9--|
|--e-----9--9--e-----9--9--e-----9--9--e-----9--9--|
|--s-----9--9--s-----9--9--s-----9--9--s-----9--9--|
|--t-----7--7--t-----7--7--t-----7--7--t-----7--7--|
|--------------------------------------------------|


   1     &     2     &     3     &     4     &    
|--------2--2--------2--2--------2--2--------2--2--|
|--R-----4--4--R-----4--4--R-----4--4--R-----4--4--|
|--e-----4--4--e-----4--4--e-----4--4--e-----4--4--|
|--s-----4--4--s-----4--4--s-----4--4--s-----4--4--|
|--t-----2--2--t-----2--2--t-----2--2--t-----2--2--|
|--------------------------------------------------|


Heres the other guitar part. Listen to the song and you'll know when to play it.

          // = Slide up
          \\ = Slide down
        Rest = Mute sound

   1     &     2     &     3     &     4     &
|--------------------------------------------------|
|-----------------------------------------R-----R--|
|-----------------------------------------e-----e--|
|-----------------------------------------s-----s--|
|--2--------------------------------4//6--t--6--t--|
|--------------------------------------------------|


   1     &     2     &     3     &     4     &
|--------------------------------------------------|
|-----------------------------------------R-----R--|
|-----------------------------------------e-----e--|
|-----------------------------------------s-----s--|
|--6\\4--------------------------------6--t--6--t--|
|--------------------------------------------------|


   1     &     2     &     3     &     4     &
|--------------------------------------------------|
|--------------------------------------R--------R--|
|--------------------------------------e--------e--|
|-----------------------------------2--s--4//6--s--|
|--6\\4--------------------------------t--------t--|
|--------------------------------------------------|


   1     &     2     &     3     &     4     &
|--------------------------------------------------|
|--------------------------------------------------|
|--------------------------------------------------|
|--------------------------------------------------|
|--2-----------------------------------------------|
|--------------------------------------------------|


Oliver asked me to do a cover of this song on youtube so I learned the song.
If you want to listen to the song, go to
http://www.youtube.com/watch?v=bhn-KEtfoXw and if you want to listen to my
cover, go to http://www.youtube.com/watch?v=PqKgRqKtJ9U
Tap to rate this tab
# A B C D E F G H I J K L M N O P Q R S T U V W X Y Z