Guitaretab - guitar tabs
Song name
# A B C D E F G H I J K L M N O P Q R S T U V W X Y Z

Jeff Beck - Where Were You tab

----------------------------------------------------------------------------
			  WHERE WERE YOU - JEFF BECK
----------------------------------------------------------------------------
Tabbed by: Flyblow
Email: Mazey098@yahoo.co.uk

Tuning: Stadard E (EADGBE)

Listen to record for timing.

e|---12------12-14------------10-----10/12\9/10\7/9\5-----------------------|
B|14------15-------15---12-14-----------------------------------------------|
G|--------------------------------------------------------------------------|
D|--------------------------------------------------------------------------|
A|--------------------------------------------------------------------------|
E|--------------------------------------------------------------------------|
[ Tab from: http://www.guitaretab.com/j/jeff-beck/132796.html ]
e|---12------12-14-12------------10----------10/12\9/10\7/9\5---------------|
B|14------15----------15---12-14--------------------------------------------|
G|--------------------------------------------------------------------------|
D|--------------------------------------------------------------------------|
A|--------------------------------------------------------------------------|
E|--------------------------------------------------------------------------|

x2
                    Ph<-----------------------------------------------|            ^
e|-19~\----19~\--------15-12-------14---15-12------------12/17\15/21--|
B|---------------------------15-12------------15-12-14----------------|
G|--------------------------------------------------------------------|
D|--------------------------------------------------------------------|
A|--------------------------------------------------------------------|
E|--------------------------------------------------------------------|

Thats the main part of it. Pretty sure its correct. After that he plays something else
quite work it out) then back to the origional riff. Questions/queries/correction mazey098@yahoo.co.uk

| /  slide up
| \  slide down
| h  hammer-on
| p  pull-off
| ~  vibrato
| +  harmonic
| x  Mute note
 Ph Pinch harmonic
 ^ Bend up
============================================================================
Related for Where Were You tab