Song name
# A B C D E F G H I J K L M N O P Q R S T U V W X Y Z

Jeff Buckley - Last Goodbye tab

-----------------------------------------------------------------------------
UNFORGIVEN (LAST GOODBYE) – Jeff Buckley
-----------------------------------------------------------------------------

This is the Live at Sin-é version of Last Goodbye

Tabbed by Mike Talbot

INTRO: - Normally slide guitar. (No slide in Sin-é version)
D|-2-------(2)/5/---12------(12)/7-----|
B|-2-------(2)/5/---12------(12)/7-----|
G|-2-------(2)/5/---12------(12)/7-----| PLAY
D|-2-------(2)/5/---12------(12)/7-----|  x4
G|-------------------------------------|
D|-------------------------------------|

Sometimes I start it with this (the bass line):

D|-----------------------------------------------------|
B|----------------------------------------------------*|
G|-----------------------------------------------------|
D|-----------------------------------------------------|
G|----2---2---2---2---5---5----0---0---0---0---7---7--*|
D|--4---4---4---4-------7----2---2---2---2-------9-----|

Actual intro: (figure out the rhythm)

It’s all strummed together, but the bass notes are accented rhythmically (to the 
rhythm of the bass line)

	A/F         C/A       G/E          D/B
D|----------------------------------------------------|
B|----------------------------------------------------|
G|------2--2--2--2--5--5--5---0--0--0--0---7--7--7----|
D|------2--2--2--2--5--5--5---0--0--0--0---7--7--7----|
G|------2--2--2--2--5--5--5---0--0--0--0---7--7--7----|
D|--2h3h4--4--4--4--7--7--7---2--2--2--2---9--9--9----|
         
        A/F	     C/A      G/E         D/A#/B          
D|-------------------------------------------------------|
B|-------------------------------------------------------|
G|------2--2--2--2--5--5--5---0--0--0--0-----7--7--------|
D|------2--2--2--2--5--5--5---0--0--0--0-----7--7--------|
G|------2--2--2--2--5--5--5---0--0--0--0-----7--7--------|
D|------4--4--4--4--7--7--7---2--2--2--2—8h9-9--9—-9/----|

D|----------------------------------------------------|
B|----------------------------------------------------|
G|------2--2--2--2--5--5--5---0--0--0--0---7--7--7----|
D|------2--2--2--2--5--5--5---0--0--0--0---7--7--7----|
G|------2--2--2--2--5--5--5---0--0--0--0---7--7--7----|
D|------4--4--4--4--7--7--7---2--2--2--2---9--9--9----|





D|--0--0--0--0--0--0--0---0--0--0--0--0--0--0-|
B|--0--0--0--0--0--0--0---0--0--0--0--0--0--0-|
G|--6--6--7-p6--6--6--6---6--6--6--6--6--7--6-|
D|--7--7--7--7--7--7--7---7--7--7--7--7--7--7-|
G|--------------------------------------------|
D|--7--7--7--7--7--7--7---5--5--5--5--5--5--5-|


D|--0------0--0--0--0--0--0-----0-----0--0--0--0--0-0-0-0|
B|--0------0--0--0--0--0--0-----0-----0--0--0--0--0-0-0-0|
G|-/12----12-12-12-12-11-11----12----12-12-12-12-11-6-6/7|
D|--0------0--0--0--0--0--0-----0-----0--0--0--0--0-0-0-0|
G|-/12----12-12-12-12-11-11----12----12-12-12-12-11-6-6/7|
D|--0------0--0--0--0--0--0-----0-----0--0--0--0--0-0-0-0|

D|--0--0--0--0--0----0--0--0--0--0--0--0--0--0--0--0--|
B|--0--0--0--0--0----0--0--0--0--0--0--0--0--0--0--0--|
G|--6/7/6-4/6/7-7----7--7--7--2--2--0--0-p2--2-/4-/6--|
D|--0--0--0--0--0----0--0--0--0--0--0--0--0--0--0--0--|
G|--6/7/6-4/6/7-7----7--7--7--2--2--0--0-p2--2-/4-/6--|
D|--0--0--0--0--0----0--0--0--0--0--0--0--0--0--0--0--|
			
                 (Rhythm change)
D|--0--0--0--0--0---0--0--0--0--0--0--0--0--0--0--0--0--|
B|--0--0--0--0--0---0--0--0--0--0--0--0--0--0--0--0--0--|
G|--7-/9-/11-9--9--12-12--6--6--9--9--2--2--4--4--0--0--|
D|--0--0--0--0--0---0--0--0--0--0--0--0--0--0--0--0--0--|
G|--7-/9-/11-9--9--12-12--6--6--9--9--2--2--4--4--0--0--|
D|--0--0--0--0--0---0--0--0--0--0--0--0--0--0--0--0--0--|

D|-0-----0--0--0--0--0--0--0--0--------------------|
B|-0-----0--0--0--0--0--0--0--0--------------------|
G|-0-----0--0--11-11-0--0--11-11-------------------|
D|-0-h4-p0--0--0--0--0--0--0--0--------------------|
G|-0-----0--0--11-11-0--0--11-11-------------------|
D|-0-h4-p0--0--0--0--0--0--0--0--------------------|

D|----------------------------------------------------|
B|----------------------------------------------------|
G|------2--2--2--2--5--5--5---0--0--0--0---7--7--7----|
D|------2--2--2--2--5--5--5---0--0--0--0---7--7--7----|
G|------2--2--2--2--5--5--5---0--0--0--0---7--7--7----|
D|--2h3h4--4--4--4--7--7--7---2--2--2--2---9--9--9----|
                                                    
D|-------------------------------------------------------|
B|-------------------------------------------------------|
G|------2--2--2--2--5--5--5---0--0--0--0-----7--7--------|
D|------2--2--2--2--5--5--5---0--0--0--0-----7--7--------|
G|------2--2--2--2--5--5--5---0--0--0--0-----7--7--------|
D|------4--4--4--4--7--7--7---2--2--2--2—8h9-9--9—-9/----|

D|----------------------------------------------------|
B|----------------------------------------------------|
G|------2--2--2--2--5--5--5---0--0--0--0---7--7--7----|
D|------2--2--2--2--5--5--5---0--0--0--0---7--7--7----|
G|------2--2--2--2--5--5--5---0--0--0--0---7--7--7----|
D|------4--4--4--4--7--7--7---2--2--2--2---9--9--9----|

D|--0--0--0--0--0--0--0---0--0--0--0--0--0--0-|
B|--0--0--0--0--0--0--0---0--0--0--0--0--0--0-|
G|--6--6--6--6--6--6--6---6--6--6--6--6--6--6-|
D|--7--7--7--7--7--7--7---7--7--7--7--7--7--7-|
G|--------------------------------------------|
D|--7--7--7--7--7--7--7---5--5--5--5--5--5--5-|

                                       “Well…



VERSE:
------

G/D           D6         G/D
This is our last goodbye,
D6        G/B           Aadd11     Em7
I hate to feel the love between us die,
         G
But it's over...
          D9                 G*2
Just hear this and then I'll go.
    Aadd11*                   
You gave me more to live for,
G*2            
More than you'll ever know.



BRIDGE 1:
---------

   G/D                         D6
D|--0-----0--0--0-----0--0-----0--0-----0--0--0--0-|
B|--0-----0--0--0-----0--0-----0--0-----0--0--0--0-|
G|-12----12-12-12----12-12----11-11----11-11-11-12-| PLAY
D|--0-----0--0--0-----0--0-----0--0-----0--0--0--0-|  x4
G|-12----12-12-12----12-12----11-11----11-11-11-12-|
D|--0-----0--0--0-----0--0-----0--0-----0-----0--0-|



VERSE:
------

G/D          D6      G/D  D6
This is our last embrace…………,
        G/B            Aadd11    G*
Must I dream and always see your face?
    Em7               A*   D9   G*2
Why can't we overcome this wa - all? Oh
Aadd11*                          Em7
Baby, it's just because I didn't know you at all 




BRIDGE 2: (angry)
---------

D|-----0--------0-----0--------0-----0--------|
B|-----0--------0-----0--------0-----0--------|
G|-----5--------5-----5--------5-----5--------|
D|-----3--------3-----3--------3-----3--------|
G|-----5--------5-----5--------5-----5--------|
D|--0--0--0--0--0--0--0--0--0--0--0--0--0--0--|

                                      ___________________ __________
                                     /1.                 /2.
D|----0--------0-----0--------0----0--0--0--0---------|--0--0--0--0--0|
B|----0--------0-----0--------0----0--0--0--0--------*|--0--0--0--0--0|
G|----5--------5-----5-------10---10-10-10-10---------|-10-10-10-10-10|
D|----3--------3-----3--------8----8--8--8--8---------|--8--8--8--8--8|
G|----5--------5-----5-------10---10-10-10-10--------*|-10-10-10-10-10|
D|-0--0--0--0--0--0--0--0--0--0----0--0--0--0--5-3-0--|--0--0--0--0--0|



VERSE:
------
(Like intro)

A/F      C/A    G/E     D/B
Kiss me, please kiss me,
            A/F         C/A        G/E         D/A#/B
But kiss me out of desire, and not consolation,
                A/F           C/A          G/E            D/B
Oh, you know it makes me so angry 'cause I know that in time,
Aadd11              Aadd11/G          
I'll only make you cry, this is our last goodbye.



BRIDGE 3:
---------

D|--0--0--0--0--0--0--0--0--0--0--0--0--0--0--0-----------|
B|--0--0--0--0--0--0--0--0--0--0--0--0--0--0--0-----------|
G|--0--0-11-11-12-12-11-11-11--4--4--4/-7--7--7-----------|
D|--0--0--0--0--0--0--0--0--0--0--0--0--0--0--0-----------|
G|--0--0-11-11-12-12-11-11-11--4--4--4/-7--7--7-----------|
D|--0--0--0--0--0--0--0--0--0--0--0--0--0--0--0-----------|

D|-0--0--0--0--0--0--0--0--0--0--0--0---------0--0--0-----4---|
B|-0--0--0--0--0--0--0--0--0--0--0--0---------0--0--0-----0---|
G|-2--2--2/-4--4--4/-6--6--6-11-11-11/12/11/6-6--6--4/6/4-4/6-|
D|-0--0--0--0--0--0--0--0--0--0--0--0---------0--0--0-----0---|
G|-2--2--2/-4--4--4/-6--6--6-11-11-11/12/11/6-6--6--4/6/4-4/6-|
D|-0--0--0--0--0--0--0--0--0--0--0--0---------0--0--0-----0---|


D|-4-----0--0-----0--0--0---0--0--0--0----|
B|-0-----0--0-----0--0--0---0--0--0--0----|
G|-4/6/2-2--2/4p0-0--2--2-/14-14-14-14----|
D|-0-----0--0-----0--0--0---0--0--0--0----|
G|-4/6/2-2--2/4p0-0--2--2-/14-14-14-14----|
D|-0-----0--0-----0--0--0---0--0--0--0----|

G/B   Aadd11   Em7

G/B   Aadd11   Em7  /  F*  /  G

G/B   Aadd11   G*



VERSE:
------

D9         G*2    Aadd11*         G*2           D9
    Did you say, "No, this can't happen to me,"
             G*2        Aadd11*        G*2
And did you rush to the phone to call?
            D9        G*2
Was there a voice unkind
       Aadd11*        G*2
In the back of your mind,
          Em7/D     Bm7/D  Am11  G5            Cadd9
Sayin', "May  -  hey  -  beeeeeeeee you didn't know him at all…
           
Oooooo……… yeah


Bridge 4:
---------

D|--0-----0--0--0-----0--0-----0--0-----0--0--0--0-|
B|--0-----0--0--0-----0--0-----0--0-----0--0--0--0-|
G|--0-----0--0--0-----0--0----11-11----11-11-11-11-| PLAY
D|--0-----0--0--0-----0--0-----0--0-----0--0--0--0-|  x3
G|--0-----0--0--0-----0--0----11-11----11-11-11-11-|
D|--0-----0--0--0-----0--0-----0--0-----0-----0--0-|

D|--0-----0--0--0-----0--0-----0--0--0--0--7+--| 
B|--0-----0--0--0-----0--0-----0--0--0--0--7+--|
G|--0-----0--0--0-----0--0----11-11-11-11--7+--|
D|--0-----0--0--0-----0--0-----0--0--0--0--7+--| 
G|--0-----0--0--0-----0--0----11-11-11-11--7+--|
D|--0-----0--0--0-----0--0-----0--0--0--0--7+--|

D|--0-----0--0--0-----0--0-----0--0-----0--0--0--0-|
B|--0-----0--0--0-----0--0-----0--0-----0--0--0--0-|
G|--0-----0--0--0-----0--0----11-11----11-11-11-11-|
D|--0-----0--0--0-----0--0-----0--0-----0--0--0--0-| 
G|--0-----0--0--0-----0--0----11-11----11-11-11-11-|
D|--0-----0--0--0-----0--0-----0--0-----0-----0--0-|


D|--0--0--0--0--0--0--0--0--0--0--0--0--0--0--0--0--0----|
B|--0--0--0--0--0--0--0--0--0--0--0--0--0--0--0--0--0----|
G|--0--0-11-11-12-12-11-11-11--4--4--4/-6--6--6/-7--7----|
D|--0--0--0--0--0--0--0--0--0--0--0--0--0--0--0--0--0----|
G|--0--0-11-11-12-12-11-11-11--4--4--4/-6--6--6/-7--7----|
D|--0--0--0--0--0--0--0--0--0--0--0--0--0--0--0--0--0----|

D|--0--0--0---0---0---0--0--0--0--0--0-----0--0--0----|
B|--0--0--0---0---0---0--0--0--0--0--0-----0--0--0----|
G|--2--2--2/4-4/6-6/7-7--7--7--9--9--9/11-11-11-11----|
D|--0--0--0---0---0---0--0--0--0--0--0-----0--0--0----|
G|--2--2--2/4-4/6-6/7-7--7--7--9--9--9/11-11-11-11----|
D|--0--0--0---0---0---0--0--0--0--0--0-----0--0--0----|

D|--0-----0---0----0--0--0--0--0--0---0--0-----0--0-----0--|
B|--0-----0---0----0--0--0--0--0--0---0--0-----0--0-----0--|
G|-11/12-11/9-9/11-7--7--7--6--6--6/9-9--9/11-11-11/12-11--|
D|--0-----0---0----0--0--0--0--0--0---0--0-----0--0-----0--|
G|-11/12-11/9-9/11-7--7--7--6--6--6/9-9--9/11-11-11/12-11--|
D|--0-----0---0----0--0--0--0--0--0---0--0-----0--0-----0--|

D|--0--0--0--0--0--0--0--0--0--0--0--0----|
B|--0--0--0--0--0--0--0--0--0--0--0--0----|
G|-12-12-12-12-12-12-11-11-11-12-12-12----|
D|--0--0--0--0--0--0--0--0--0--0--0--0----|
G|-12-12-12-12-12-12-11-11-11-12-12-12----|
D|--0--0--0--0--0--0--0--0--0--0--0--0----|

(Simplified notation: play all other strings open)
D|----------------------|
B|----------------------|
G|-12-12/14-14/16-16/17-|
D|----------------------|
G|-12-12/14-14/16-16/17-|
D|----------------------|

D|-------------------------------------------------|
B|-------------------------------------------------|
G|-17-17-17-17-17-17-17-17----17-17-17-17-17-17-17-|
D|-------------------------------------------------|
G|-17-17-17-17-17-17-17-17----17-17-17-17-17-17-17-|
D|-------------------------------------------------|

D|-------------------------------------------------|
B|-------------------------------------------------|
G|-17-17-17-17-17-16-16-16-11-11-11--7--7--7-------|
D|-------------------------------------------------|
G|-17-17-17-17-17-16-16-16-11-11-11--7--7--7-------|
D|-------------------------------------------------|

D|----------------------|
B|----------------------|
G|-12-12/14-14/16-16/17-|
D|----------------------|
G|-12-12/14-14/16-16/17-|
D|----------------------|


D|-------------------------------------------------|
B|-------------------------------------------------|
G|/17-17-17-17-17-17-17-17----17-17-17-17-17-17-17-|
D|-------------------------------------------------|
G|/17-17-17-17-17-17-17-17----17-17-17-17-17-17-17-|
D|-------------------------------------------------|

D|------------------------------------------------------------|
B|------------------------------------------------------------|
G|-17-17-17-17-17-16-16-16-16-16-16-16-16-14-11--11-11/12-----|
D|------------------------------------------------------------|
G|-17-17-17-17-17—16-16-16-16-16-16-16-16-14-11--11-11/12-----|
D|------------------------------------------------------------|

D|-------------------------------------------------|
B|-------------------------------------------------|
G|--11/12/9-9/11/7—7/9/6-6p0-0-2-2-2---------------|
D|-------------------------------------------------|
G|--11/12/9-9/11/7—7/9/6-6p0-0-2-2-2---------------|
D|-------------------------------------------------|

Outro:
---------

D|--0--0--0--0--0--0--0--0--0--0--0--0--0--0--0--|
B|--0--0--0--0--0--0--0--0--0--0--0--0--0--0--0--|
G|-12-12-12-12-12-12-11-11-11-12-12-12-11-11-11--|
D|--0--0--0--0--0--0--0--0--0--0--0--0--0--0--0--|
G|-12-12-12-12-12-12-11-11-11-12-12-12-11-11-11--|
D|--0--0--0--0--0--0--0--0--0--0--0--0--0--0--0--|
                                        My last…

D|--0--0--0--0--0--0--0--0--0--0--0--0--0--0--0--|
B|--0--0--0--0--0--0--0--0--0--0--0--0--0--0--0--|
G|-12-12-12-12-12-12-11-11-11-12-12-12-11-11-11--|
D|--0--0--0--0--0--0--0--0--0--0--0--0--0--0--0--|
G|-12-12-12-12-12-12-11-11-11-12-12-12-11-11-11--|
D|--0--0--0--0--0--0--0--0--0--0--0--0--0--0--0--|

D|--0--0--0--0--0--0--0--0--0--0--0--0--0--0--0--|
B|--0--0--0--0--0--0--0--0--0--0--0--0--0--0--0--|
G|-12-12-12-12-12-12-11-11-11-12-12-12-11-11-11--|
D|--0--0--0--0--0--0--0--0--0--0--0--0--0--0--0--|
G|-12-12-12-12-12-12-11-11-11-12-12-12-11-11-11--|
D|--0--0--0--0--0--0--0--0--0--0--0--0--0--0--0--|
   My last…

D|-0-0-0-0-0-0-0-0-0-0-0-0--0~----|
B|-0-0-0-0-0-0-0-0-0-0-0-0--0~----|
G|-0-0-0-0-0-0-0-0-0-4-4-4--6~----|
D|-0-0-0-2-2-2-4-4-4-5-5-5--7~----|
G|-0-0-0-0-0-0-0-0-0-0-0-0--0~----|
D|-0-0-0-2-2-2-4-4-4-5-5-5--7~----|
        My    last   goodbye…


CHORDS:
-------
(The names may not be correct, but it’s as close as I care to get right now)

   G/D  D6   G/B Aadd11 G*  Em7   G    D9  G*2 Aadd11*
D|--0----0----0----0-----0---0----0----0----0-----0--|
B|--0----0----0----0-----0---0----0----5----3-----5--|
G|-12---11----7----6-----4---0----0----6----4-----6--|
D|--0----0----9----7-----5---2----5----7----5-----7--|
G|-12---11-------------------0----0----7-------------|
D|--0----0----9----7-----5---2----5----0----5-----7--|

    A*  Em7/D Bm7/D  Am11   G5  Cadd9 A/F C/A G/E D/B  Aadd11/G   F*
D|--0-----0-----0-----0-----5-----0----------------------0--------0--|
B|--0-----8-----3-----1-----3-----3----------------------0--------0--|
G|--0-----7-----2-----0-----0-----0----2---5---0---7-----6--------4--|
D|--7-----9-----4-----2-----0-----4----2---5---0---7-----7--------0--|
G|--------9-----4-----2-----0-----5----2---5---0---7--------------4--|
D|--7-----0-----0-----0-----0-----0----4---7---2---9-----5--------0--|

For D/A#/B, see intro

| /  slide
| h  hammer-on
| p  pull-off
| ~  sustain
| +  harmonic

=============================================================================

Tap to rate this tab
# A B C D E F G H I J K L M N O P Q R S T U V W X Y Z