Song name
# A B C D E F G H I J K L M N O P Q R S T U V W X Y Z

Jeff Buckley - Last Goodbye chords

Highlighted       Show chord diagrams
slide from frets 2-5-12-7   G/D-D/G

Riff:

E---0-5----8-----0-3----10--------------|
A---7-7----10----5-5----12--------------|     
D---7-7----10----5-5----12--------------|
G---------------------------------------|

A7  G


G/D-D/G
This is our last goodbye
          Bm7               A     Em-Em7
I hate to feel the love between us die
         G
But it's over
          Em7 -    Em6
Just hear this and then I'll go
    A                    A4
You gave me more to live for
A                A4   G/D-D/G
More than you'll ever know

     G/D-D/G
Well this is our last embrace
       Bm7         A            Em-Em7
Must I dream and always see your face
    G                      Em7-Em6
Why can't we overcome this wall
     A                  A4           A                  A4
Well maybe it's just because I didn't know you at all

G4 - Bb4 x2

[Riff]
Kiss me, please kiss me
But kiss me out of desire, babe, and not consolation
Oh you know it makes me so angry 'cause I know that in time
A7                 G
I'll only make you cry, this is our last goodbye

Instrumental chords: [G/D-D/G x4] Bm7 A Em A4 A Em7 Em6 Em7 Em6 Em7 A

D-D4-D  D-D4-D   A                G
Did you say     "no, this can't happen to me,"?
And did you rush to the phone to call
Was there a voice unkind in the back of your mind
       Em7 Am Am2            Em7(pedal)
Saying may-be      you didn't know him at all
                                              [Riff x2]
You didn't know him at all, oh oh, you didn't know

          D                         A    A2
Well, the bells in the church tower chime
        C                     Cmaj7  A
Burning clues into this heart of     mine
         Cmaj7          D                C
Thinking so hard on her soft eyes and the memories
      D                 [G4-Bb4 x2]
Offer signs that it's over...
D A A2  C2
O       ver

G----------------------|
B------------12---15---|
E--15---14-------------|



CHORDS:

    G/D-D/G   Em7  Em6  A4    G4-Bb4  A2   Cmaj7  C2
E----3---3-----0----0----x----3---6----x-----x-----0---------------|
A----x---x-----2----2----0----5---8----0-----3-----3---------------|
D----0---0-----2----2----2----3---6----2-----2-----2---------------|
G----2---2-----0----0----2----5---8----2-----0-----0---------------|
B----3---3-----3----2----3----x---x----0-----0-----3---------------|
E----3---2-----0----0----0----x---x----0-----0-----0---------------|



I couldn't find one single chord chart on the net with all the suspensions
 included so I decided to submit my own version. I'm pretty confident I got
 most of the suspensions in, and I'm pretty happy with it, but if you have
 any suggestions or comments, feel free to send them to me at
 ellengillon@gmail.com Chhers.
Tap to rate this tab
# A B C D E F G H I J K L M N O P Q R S T U V W X Y Z