Song name
# A B C D E F G H I J K L M N O P Q R S T U V W X Y Z

Jeff Healey - My Little Girl tab

|----------------------------5--55-|
|----------------------------5--55-|
|---5-7-b9-5--------5--------5--55-| 2x
|/7----------7-5--7---7-5-7--------|
|----------------------------------|
|----------------------------------|

---------------------------8-5------------5----------------------|
-----------------6---8-6-------8b10---6-8---6--------------------|
----5-7-b9-5---7---7--------------------------7----7-5-------7---|
-/7----------7-----------------------------------------7-5--7----|
-----------------------------------------------------------------|
-----------------------------------------------------------------|

---------------------5---------------------------------|
-6-6-6h8p6---6--8-6----8-6-----------------------------|
-----------7---------------7-5------7-5----------------|
-------------------------------7-5------7-5/3----------|
----------------------------------------------5-3-5----|
-------------------------------------------------------|
Tap to rate this tab
# A B C D E F G H I J K L M N O P Q R S T U V W X Y Z