Guitaretab - guitar tabs
Song name
# A B C D E F G H I J K L M N O P Q R S T U V W X Y Z

Jeff Healey - Hell To Pay tab

Artist:Jeff Healey Band
Track: Hell to Pay
Album: Hell to Pay
Tabbed By: Kneel-er

- Standard EADGBe tuning
- Best played with high gain and a flanger effect
- All chords are played as power-chords (X5)
- Listen to the track to pick up the plectrum movements and damping... Itís 
enough!


Intro/(Rhythm Behind) Solo
  B5 E5 A5 B5 D5
|----------------|
|----------------|
|----------------|
|-4-----2--4--7--| x4
|-2--2--0--2--5--|
|----0-----------|


Verse 1(0min27sec)
  B5 E5 A5 B5 D5
|----------------|
|----------------|
|----------------|
|-4-----2--4--7--| x4
|-2--2--0--2--5--|
|----0-----------|

1. When you think youíve got problems you donít really need they may be not as bad as 
seem
2. Cause in a world full of misery with hatred and greed your problems are another mans dream
3. Now when your own little world seems to be in a state and you think you may be losing 
mind
4. Just remember the people who only can wait for happiness they never will find ... and 
know


Chorus (0min55sec)
  D5 A5
|--------------------|
|--------------------|
|--------------------|
|-7-----------7---7--| x3
|-5--7--7-8-9---9----|
|----5---------------|

1. Problems come and problems go
2. This is something you should know
3. Thereís people in the world today

  D5 A5
|-------|
|-------|
|-------|
|----2--| x1
|-7--0--|
|-5-----|

1. Who donít have nothing but hell to pay

(Rhythm Behind) Solo (1min08sec)
  B5 E5 A5 B5 D5
|----------------|
|----------------|
|----------------|
|-4-----2--4--7--| x2
|-2--2--0--2--5--|
|----0-----------|
(1min22sec)


Verse 2 (1min21sec)
  B5 E5 A5 B5 D5
|----------------|
|----------------|
|----------------|
|-4-----2--4--7--| x2
|-2--2--0--2--5--|
|----0-----------|

1. Now when your life and success has got you living in doubt, and your feeling like 
nowhere to turn
2. Just remember the world that you donít know about and all the lessons that you can 
... cause you know
(1min35sec)


Chorus (1min35sec)
  D5 A5
|--------------------|
|--------------------|
|--------------------|
|-7-----------7---7--| x3
|-5--7--7-8-9---9----|
|----5---------------|
[ Tab from: http://www.guitaretab.com/j/jeff-healey/125570.html ]
1. Problems come and problems go
2. This is something you should know
3. Thereís people in the world today


  D5 A5
|-------|
|-------|
|-------|
|----2--| x1
|-7--0--|
|-5-----|

1. Who donít have nothing but hell to pay


(Rhythm Behind) Backing Singing (1min49sec)
  B5 E5 A5 B5 D5
|----------------|
|----------------|
|----------------|
|-4-----2--4--7--| x2
|-2--2--0--2--5--|
|----0-----------|


(Rhythm Behind) Solo (2min03sec)
  B5 E5 A5 B5 D5
|----------------|
|----------------|
|----------------|
|-4-----2--4--7--| x4
|-2--2--0--2--5--|
|----0-----------|


Chorus (2min29sec)
  D5 A5
|--------------------|
|--------------------|
|--------------------|
|-7-----------7---7--| x3
|-5--7--7-8-9---9----|
|----5---------------|

1. Cause you know ... problems come and problems go
2. This is something you should know
3. Thereís people in the world today


  D5 A5
|-------|
|-------|
|-------|
|----2--| x1
|-7--0--|
|-5-----|

1. Who donít have nothing but hell to pay


Verse 3 (2min43sec)
  B5 E5 A5 B5 D5
|----------------|
|----------------|
|----------------|
|-4-----2--4--7--| x2
|-2--2--0--2--5--|
|----0-----------|

1. When you think youíve got problems you donít really need they may be not as bad as 
seem
2. Cause in a world full of misery with hatred and greed your problems are another mans 
... and you know


Chorus (2min56sec)
  D5 A5
|--------------------|
|--------------------|
|--------------------|
|-7-----------7---7--| x3
|-5--7--7-8-9---9----|
|----5---------------|

1. Problems come and problems go
2. This is something you should know
3. Thereís people in the world today


  D5 A5
|-------|
|-------|
|-------|
|----2--| x1
|-7--0--|
|-5-----|

1. Who donít have nothing but hell to pay


(Rhythm Behind) Solo/Outro (3min10sec)
  B5 E5 A5 B5 D5
|----------------|
|----------------|
|----------------|
|-4-----2--4--7--| x3
|-2--2--0--2--5--|
|----0-----------|
(3min31sec)

  B5 E5              D5
|-----------------------|
|-----------------------|
|-----------------------|
|-4-----------7---9--7--| x1
|-2--2--7-8-9---9----5--|
|----0------------------|

(END)

Rock forever & Enjoy
© 2006 Kneel-er
Related for Hell To Pay tab