Song name
# A B C D E F G H I J K L M N O P Q R S T U V W X Y Z

Jeff Healey - Let It All Go tab

This is a pretty easy song. It is basically the following:  


	F#		B		F#		B

e]-----2---------------7--------------2--------------7--------------|
A]----2--2---2--------7---7---7------2---2---2------7---7---7-------|
D]---3-----3---------8-----8--------3------3-------8------8---------|
G]--4---------------9--------------4--------------9-----------------|
B]------------------------------------------------------------------|
E]------------------------------------------------------------------|


	E		B		E		B			
	
e]-------12---------------7----------------12--------------7--------|
A]----12----12----12-----7---7---7-------12---12----12----7---7---7-|
D]---13--------13-------8------8-------13--------13------8------8---|
G]--14-----------------9-------------14-----------------9-----------|
B]------------------------------------------------------------------|
E]------------------------------------------------------------------|
	
	
	F#		

e]------2---------------2------------------------------------|
A]-----2---2---2-------2---2---2-----------------------------|
D]----3------3--------3------3-------------------------------|
G]---4---------------4---------------------------------------|
B]-----------------------------------------------------------|
E]-----------------------------------------------------------|


Quite easy to hear the changes in the song for timing etc. Hope this helps someone.
Tap to rate this tab
# A B C D E F G H I J K L M N O P Q R S T U V W X Y Z