Song name
# A B C D E F G H I J K L M N O P Q R S T U V W X Y Z

Jeff Wayne - The Artilleryman And The Fighting Machine tab

-----------------------------------------------------------------------------
              Artilleryman and the Fighting Machine - Jeff Wayne
-----------------------------------------------------------------------------


Tuning: Standard (EADGBE)

e|---------------|-----------------|------------------------|-------9-8-9/6-----|
B|---8-8b(9)-6-6-|----8-8b(9)/18---|-----13--13b(15)-11--11-|-------------------|
G|---------------|-----------------|------------------------|--8----------------|
D|---------------|-----------------|------------------------|-------------------|
A|---------------|-----------------|------------------------|-------------------|
E|---------------|-----------------|------------------------|-------------------|

e|---------16--13------|--------------------|----------------------------------|
B|----------------13---|-----8--8b(9)--6--6-|-8--8b(9)--6/18~~~~~--------------|
G|---/13---------------|--------------------|----------------------------------|
D|---------------------|--------------------|----------------------------------|
A|---------------------|--------------------|----------------------------------|
E|---------------------|--------------------|----------------------------------|


Any Questions email mattymoore69@gmail.com
Tap to rate this tab
 
# A B C D E F G H I J K L M N O P Q R S T U V W X Y Z